PrimaNota.ru - самый крупный в мире бесплатный архив песенных текстов, аккордов, табулатур и нот


Drop Dead Gorgeous - The Internet Killed The Video Star - текст песни, таба, бас-таба, видео

Регистрация Запомнить меня
Войти через:  Facebook Google Twitter Vk Yandex Mail.ru

Drop Dead Gorgeous - The Internet Killed The Video Star - текст песни, таба, бас-таба, видео

Печатать
Просмотров: 147

Intro:
D|-------------------------------------|
A|-------------------------------------|
F|--1010101010101010-1515151515151515--|
C|-------------------------------------|X4
G|---8-8-8-8-8-8-8-8-1313131313131313--|
C|-------------------------------------|
    "Burn the instructions..."

Verse:
D|----------------------------------------|
A|-------------------11-11----11-11-------|
F|-------------------12-12----12-12-------|
C|---------------------------------x4--0--|
G|--8p0-7p0-8p0-7p0--10-10-00-10-10----0--|
C|-------------------------00----------0--|
    "Wandering the streets..."


D|------------------------|
A|------------------------|
F|-7-7---7-7----7-7-------|
C|------------------------|X4
G|-5-5---5-5----5-5-000---|
C|-----00----00-----000---|
    "If you want to make a scene..."

D|------------------------|
A|-6-6---6-6----6-6-------|
F|-7-7---7-7----7-7-------|
C|------------------------|X4
G|-5-5---5-5----5-5-000---|
C|-----00----00-----000---|
    "If you want to make a scene..."


D|-------------------------------------|
A|-------------------------------------|
F|-------------------------------------|
C|--0-0---0---0-0---0---0--------------|X4
G|--0-0---0---0-0---0---0--------------|
C|--0-0---0---0-0---0---0--------------|
  "You fucked with the wrong son of a bitch"

Chorus:
D|-------------------------------------|
A|-------------------------------------|
F|-------------------------------------|
C|-88888888-1010101010101010--0let ring|X4
G|-88888888-1010101010101010--0--------|
C|-88888888-1010101010101010--0--------|
   "I caught you staring it's not your fault..."


Verse:
D|-----------------------------------------|
A|-------------------11-11----11-11--------|
F|-------------------12-12----12-12--------|
C|-----------------------------------------|x8
G|--8p0-7p0-8p0-7p0--10-10-00-10-10--------|
C|-------------------------00--------------|
    "Tick tock tick tock, the hour is up..."


D|-------------------------------------|
A|-------------------------------------|
F|-------------------------------------|
C|--0----0-0----0-0-0----0-0-----------|x4
G|--0----0-0----0-0-0----0-0-----------|
C|--0----0-0----0-0-0----0-0-----------|
   "If you want to make a scene..."
   "Sow it up..."


D|-----|
A|-----|
F|-----|
C|--0--|
G|--0--|
C|--0--|
  "I killed the lights because I saw it all."


Chorus:
D|-------------------------------------|
A|-------------------------------------|
F|-------------------------------------|
C|-88888888-1010101010101010--0let ring|X4
G|-88888888-1010101010101010--0--------|
C|-88888888-1010101010101010--0--------|
   "I caught you staring it's not your fault..."


Добавлено: 11.06.2012
Другие материалы по этой песне:
  • Аккорды и текст

Страница создана 10.04.2012
http://primanota.ru/drop-dead-gorgeous/the-internet-killed-the-video-star-chords.htm
Привет, Гость.
Предлагаем пройти революционный курс по гитаре.
Подарок от PrimaNota.Ru, забирай!