PrimaNota.ru - самый крупный в мире бесплатный архив песенных текстов, аккордов, табулатур и нот


Drop Dead Gorgeous - Show Must Go On - текст песни, таба, бас-таба, видео

Регистрация Запомнить меня
Войти через:  Facebook Google Twitter Vk Yandex Mail.ru

Drop Dead Gorgeous - Show Must Go On - текст песни, таба, бас-таба, видео

Печатать
Просмотров: 207
----------------------------------------------------------------------------
                   Show Must Go On - Drop Dead, Gorgeous
----------------------------------------------------------------------------

I saw Drop Dead, Gorgeous live so im defiantly sure that this is how they play it. Enjoy!

Tabbed by: In Dying Arms
email: dyingapathy@yahoo.com

Drop C Tuning: CGCDAF

\ - slide down
/ - slide up
h - hammer on
p - pull of
* - palm mute


Intro: Guitar 1 (Dan)
f|---------------------------|------------------------------|
a|---------------------------|------------------------------|
d|--10\9--7/9-10/12-10\9--7/9|--10\9--7/9--9/10-10/12---7/9-|
c|---x\x--x/x--x/x---x\x--x/x|---x\x--x/x--x/x---x/x----x/x-|
g|---8\7--5/7--8/10--8\7--5/7|---8\7--5/7--7/8---8/10--10/12|
C|-00----0----0-----0----0---|-00----0----0-----0----0------| 
   **    *    *     *    *     **    *    *     *    *

f|---------------------------|------------------------------|
a|---------------------------|------------------------------|
d|--10\9--7/9-10/12-10\9--7/9|--10\9--7/9--9/10-10/12---7/9-|
c|---x\x--x/x--x/x---x\x--x/x|---x\x--x/x--x/x---x/x----x/x-|
g|---8\7--5/7--8/10--8\7--5/7|---8\7--5/7--7/8---8/10--10/12|
C|-00----0----0-----0----0---|-00----0----0-----0----0------| 
   **    *    *     *    *     **    *    *     *    *    

-guitar 2 comes in after guitar 1 plays intro once (listen to the song)

      Guitar 2  (Kyle) {Harmonized} 
f|------------------------------------|
a|------------------------------------|
d|----14\12-10/12--14/15--14\12--10/12|
c|-----x\x---x/x----x/x----x\x---x/x--|
g|----12\10--8/10--12/13--12\10--8/10-|
C|-00-------0-----0------0------0-----|
   **       *     *      *      *  
f|------------------------------------|
a|------------------------------------|
d|----14\12-10/12--12/14--14/15--15/17|
c|-----x\x---x/x----x/x----x/x----x/x-|
g|----12\10--8/10--10/12--12/13--13/15|
C|-00-------0-----0------0------0-----| Entire Intro [x2] 
   **       *     *      *      *   
Bridge: Both Guitars     
f|---------|---------|---------|---------|
a|---------|---------|---------|---------|
d|---------|---------|---------|---------|
c|-0-0-0-0-|-0-0-0-0-|-0-0-0-0-|-0-0-0-0-|
g|-0-0-0-0-|-0-0-0-0-|-0-0-0-0-|-0-0-0-0-|
C|-0-0-0-0-|-0-0-0-0-|-0-0-0-0-|-0-0-0-0-|
   * * * *   * * * *   * * * *   * * * *
f|---------|---------------------|
a|---------|-14-14--14-14--14-14-|
d|---------|-11-11--11-11--11-11-|
c|-0-0-0-0-|---------------------|
g|-0-0-0-0-|---------------------|
C|-0-0-0-0-|---------------------| [x4]
   * * * *   
Back to Intro: Guitar 1 (Dan)
f|---------------------------------|------------------------------|
a|---------------------------------|------------------------------|
d|--------10\9--7/9-10/12-10\9--7/9|--10\9--7/9--9/10-10/12---7/9-|
c|---------x\x--x/x--x/x---x\x--x/x|---x\x--x/x--x/x---x/x----x/x-|
g|-12\-----8\7--5/7--8/10--8\7--5/7|---8\7--5/7--7/8---8/10--10/12|
C|-12\--00-----0----0-----0----0---|-00----0----0-----0----0------| 
        **    *    *     *    *     **    *    *     *    *

f|---------------------------|------------------------------|
a|---------------------------|------------------------------|
d|--10\9--7/9-10/12-10\9--7/9|--10\9--7/9--9/10-10/12---7/9-|
c|---x\x--x/x--x/x---x\x--x/x|---x\x--x/x--x/x---x/x----x/x-|
g|---8\7--5/7--8/10--8\7--5/7|---8\7--5/7--7/8---8/10--10/12|
C|-00----0----0-----0----0---|-00----0----0-----0----0------| 
   **    *    *     *    *     **    *    *     *    *    

      Guitar 2  (Kyle) {Harmonized} 
f|------------------------------------|
a|------------------------------------|
d|----14\12-10/12--14/15--14\12--10/12|
c|-----x\x---x/x----x/x----x\x---x/x--|
g|----12\10--8/10--12/13--12\10--8/10-|
C|-00-------0-----0------0------0-----|
   **       *     *      *      *  
f|------------------------------------|
a|------------------------------------|
d|----14\12-10/12--12/14--14/15--15/17|
c|-----x\x---x/x----x/x----x/x----x/x-|
g|----12\10--8/10--10/12--12/13--13/15|
C|-00-------0-----0------0------0-----| Entire Second Intro [x2]  
   **       *     *      *      *   







Добавлено: 28.02.2012
Другие материалы по этой песне:

Страница создана 28.02.2012
http://primanota.ru/drop-dead-gorgeous/show-must-go-on-chords.htm
Привет, Гость.
Предлагаем пройти революционный курс по гитаре.
Подарок от PrimaNota.Ru, забирай!