PrimaNota.ru - самый крупный в мире бесплатный архив песенных текстов, аккордов, табулатур и нот


Drop Dead Gorgeous - Knive Vs Face Round I - таба, видео

Регистрация Запомнить меня
Войти через:  Facebook Google Twitter Vk Yandex Mail.ru

Drop Dead Gorgeous - Knive Vs Face Round I - таба, видео

Печатать
Просмотров: 94
-------------------------------------------------------------------------------
                             Knife vs Face Round I - Drop Dead, Gorgeous
-------------------------------------------------------------------------------
Tabbed by:DropDead1
Email:daniel_wherestheboat00@yahoo.com

Tuning:Drop C
00:00-00:20
D|-------------------------------------------|
A|-------11----------------11----------------|
F|----14----14----14----14----14----14-------|
C|-12----------12----12----------12----------|
G|-------------------------------------------|
C|-------------------------------------------|

D|-------------------------------------------|
A|-------11----------------11----------------|
F|----14----14----14----14----14----14-------|(4Xs)
C|-------------------------------------------|
G|-13----------13----13----------13----------|
C|-------------------------------------------|

00:20-00:29
D|-------------------------------------------|
A|---11-------------11-------11--------------|
F|---14-------------14-------14--------------|
C|-------------------------------------------|
G|-0----0-0-0-0---0----0-0-0-0---------------|
C|-0----0-0-0-0---0----0-0-0-0---------------|
        * * *          * * *

00:29-00:46
D--------------------------------------------------------------------------|
A|-------------------------------------------------------------------------|
F|-------------------------------------------------------------------------|
C|-------------------------------------------------------------------------|
G|-0-0-0-0-0-0-0-0-8-8-8-8-8-8-8-8-7-7-7-7-7-7-7-7-10-10-10-10-10-10-10-10-|
C|-0-0-0-0-0-0-0-0-8-8-8-8-8-8-8-8-7-7-7-7-7-7-7-7-10-10-10-10-10-10-10-10-|


D|-------------------------------------------------------------------------|
A|-------------------------------------------------------------------------|
F|-------------------------------------------------------------------------|
C|-------------------------------------------------------------------------|
G|-0-0-0-0-0-0-0-0-8-8-8-8-8-8-8-8-7-7-7-7-7-7-7-7-10-10-10-10-10-10-10-10-|
C|-0-0-0-0-0-0-0-0-8-8-8-8-8-8-8-8-7-7-7-7-7-7-7-7-10-10-10-10-10-10-10-10-|

00:46-01:08
D|----------------------------------------------------------------|
A|------------------------------------------------------11-11-----|
F|------------------------------------------------------14-14-----|
C|----------------------------------------------------------------|
G|-0-0--0-0-0-0-0--0-0--0-0-0-0-0--0-0--0-0-0-0-0--0-0--0-0-0-0-0-|
C|-0-0--0-0-0-0-0--0-0--0-0-0-0-0--0-0--0-0-0-0-0--0-0--0-0-0-0-0-|
   * *  * * * * *  * *  * * * * *  * *  * * * * *  * *  * * * * *
D|----------------------------------------------------------------|
A|----------------------------------------------------------------|
F|----------------------------------------------------------------|
C|----------------------------------------------------------------|
G|-0-0--0-0-0-0-0--0-0--0-0-0-0-0--8-8--8-8-8-8-8--8-8--8-8-8-8-8-|
C|-0-0--0-0-0-0-0--0-0--0-0-0-0-0--8-8--8-8-8-8-8--8-8--8-8-8-8-8-|
   * *  * * * * *  * *  * * * * *  * *  * * * * *  * *  * * * * *
D|----------------------------------------------------------------|
A|----------------------------------------------------------------|
F|----------------------------------------------------------------|
C|----------------------------------------------------------------|
G|-0-0--0-0-0-0-0--0-0--0-0-0-0-0--8-8--8-8-8-8-8--7-7--7-7-7-7-7-|
C|-0-0--0-0-0-0-0--0-0--0-0-0-0-0--8-8--8-8-8-8-8--7-7--7-7-7-7-7-|
   * *  * * * * *  * *  * * * * *  * *  * * * * *  * *  * * * * *
D|----------------------------------------------------------------|
A|----------------------------------------------------------------|
F|----------------------------------------------------------------|
C|----------------------------------------------------------------|
G|-0-0--0-0-0-0-0--0-0--0-0-0-0-0--8-8--8-8-8-8-8--8-8--8-8-8-8-8-|
C|-0-0--0-0-0-0-0--0-0--0-0-0-0-0--8-8--8-8-8-8-8--8-8--8-8-8-8-8-|
   * *  * * * * *  * *  * * * * *  * *  * * * * *  * *  * * * * *
D|-----------------------------------------------------------------------|
A|-----------------------------------------------------------------------|
F|-----------------------------------------------------------------------|
C|-----------------------------------------------------------------------|
G|-0-0--0-0-0-0-0--0-0--0-0-0-0-0--8-8--8-8-8-8-8--10-10--10-10-10-10-10-|
C|-0-0--0-0-0-0-0--0-0--0-0-0-0-0--8-8--8-8-8-8-8--10-10--10-10-10-10-10-|
   * *  * * * * *  * *  * * * * *  * *  * * * * *  *  *   *  *  *  *  *

01:08-01:17
D|--------------------------------------------|
A|---11-------------11-------11---------------|
F|---14-------------14-------14---------------|
C|--------------------------------------------|
G|-0----0-0-0-0---0----0-0-0-0----------------|
C|-0----0-0-0-0---0----0-0-0-0----------------|
        * * *          * * *

01:17-01:34
D|-------------------------------------------------------------------------|
A|-------------------------------------------------------------------------|
F|-------------------------------------------------------------------------|
C|-------------------------------------------------------------------------|
G|-0-0-0-0-0-0-0-0-8-8-8-8-8-8-8-8-7-7-7-7-7-7-7-7-10-10-10-10-10-10-10-10-|
C|-0-0-0-0-0-0-0-0-8-8-8-8-8-8-8-8-7-7-7-7-7-7-7-7-10-10-10-10-10-10-10-10-|


D|------------------------------------------------------------------------|
A|------------------------------------------------------------------------|
F|------------------------------------------------------------------------|
C|------------------------------------------------------------------------|
G|-0-0-0-0-0-0-0-0-8-8-8-8-8-8-8-8-7-7-7-7-7-7-7-7-10-10-10-10-10-10-10-10|
C|-0-0-0-0-0-0-0-0-8-8-8-8-8-8-8-8-7-7-7-7-7-7-7-7-10-10-10-10-10-10-10-10|

01:49-01:59
D|------------------------------------------------------------|
A|-----------------------------------------11-11-11-11-11-----|
F|-----------------------------------------14-14-14-14-14-----|
C|------------------------------------------------------------|
G|-0-0--0-0--8-8--8-8-8-8-8--0-0--0-0--8-8--------------------|
C|-0-0--0-0--8-8--8-8-8-8-8--0-0--0-0--8-8--------------------|
   * *  * *  * *  * * * * *  * *  * *  * *

01:59-02:18
D|-------------------------------------------------------------     ---|
A|-------7--7--7---------7--7--7--------11-11-11------11-11-11-     ---|
F|-------10-10-10--------10-10-10-------14-14-14------14-14-14-     ---|
C|-------------------------------------------------------------(4Xs)-0-|
G|-0-0-0-----------0-0-0----------0-0-0----------0-0-0---------     -0-|
C--0-0-0-----------0-0-0----------0-0-0----------0-0-0---------     -0-|
   * * *           * * *          * * *          * * *

This song is played with two guitars so figure out what guitar plays what part. Mostly 
of the high pithched parts played on F and A are played by guitar two and all the parts 
C and G are played by guitar one.
Добавлено: 08.04.2012
Другие материалы по этой песне:
  • Аккорды и текст

Страница создана 08.04.2012
http://primanota.ru/drop-dead-gorgeous/knive-vs-face-round-i-chords.htm
Привет, Гость.
Предлагаем пройти революционный курс по гитаре.
Подарок от PrimaNota.Ru, забирай!