PrimaNota.ru - самый крупный в мире бесплатный архив песенных текстов, аккордов, табулатур и нот


Drop Dead Gorgeous - Knife Vs Face Round Ii - таба, видео

Регистрация Запомнить меня
Войти через:  Facebook Google Twitter Vk Yandex Mail.ru

Drop Dead Gorgeous - Knife Vs Face Round Ii - таба, видео

Печатать
Просмотров: 112
----------------------------------------------------------------------------
                             Knife Vs Face Round II - Drop Dead, Gorgeous
----------------------------------------------------------------------------
Tabbed by:DropDead1
Email:daniel_wherestheboat00@yahoo.com

Tuning:Drop C

http://www.dropdeadgorgeousrock.com/


This is my first tab.....so take it easy on me.Drop Dead, Gorgeous is the greatest band 
and they deserve some tabs.

00:00-00:09
e|---------------------------------------------------------|
B|-------4-------4---------4-------4-----------------------|
G|-------7-------7---------7-------7-----------------------|
D|-----------------------------------(4Xs)-----------------|
A|-0-0-0---0-0-0-----0-0-0---0-0-0-------------------------|
E|-0-0-0---0-0-0-----0-0-0---0-0-0-------------------------|
   * * *   * * *     * * *   * * *
00:10-00:28
e|--------------------------------------------------------------|
B|--------------------------------------------------------------|
G|-------10-10-10-10-10-10-10------10-10-10-10-10-10------------|
D|--------------------------------------------------------------|
A|-0-0-0-8--8--8--8--8--8--8-0-0-0-8--8--8--8--8--8-0-0-0-0-0-0-|
E|-0-0-0---------------------0-0-0------------------0-0-0-0-0-0-|
                                                    * * * * * *
e|--------------------------------------------------------------|
B|--------------------------------------------------------------|
G|-------14-14-14-14-14-14-14-14--------------------------------|
D|--------------------------------------------------------------|
A|-0-0-0-12-12-12-12-12-12-12-12-0-0-0--------------------------|
E|-0-0-0-------------------------0-0-0--------------------------|

e|--------------------------------------------------------------|
B|--------------------------------------------------------------|
G|-15-15-15---14-14-14---12-12-12---14/15-----------------------|
D|--------------------------------------------------------------|
A|-13-13-13-0-12-12-12-0-10-10-10-0-12/13-----------------------|
E|----------0----------0----------0-----------------------------|

e|--------------------------------------------------------------|
B|--------------------------------------------------------------|
G|-------10-10-10-10-10-10-10------10-10-10-10-10-10------------|
D|--------------------------------------------------------------|
A|-0-0-0-8--8--8--8--8--8--8-0-0-0-8--8--8--8--8--8-0-0-0-0-0-0-|
E|-0-0-0---------------------0-0-0------------------0-0-0-0-0-0-|
                                                    * * * * * *
e|--------------------------------------------------------------|
B|--------------------------------------------------------------|
G|-------14-14-14-14-14-14-14-14--------------------------------|
D|--------------------------------------------------------------|
A|-0-0-0-12-12-12-12-12-12-12-12-0-0-0--------------------------|
E|-0-0-0-------------------------0-0-0--------------------------|

e|--------------------------------------------------------------|
B|--------------------------------------------------------------|
G|-15-15-15---14-14-14---12-12-12---14/15-----------------------|
D|-----------------------------------------0--------------------|
A|-13-13-13-0-12-12-12-0-10-10-10-0-12/13--0--------------------|
E|----------0----------0----------0--------0--------------------|

00:45-01:03
e|----------------------|
B|----------------------|
G|----------------------|
D|----------------------|
A|-0-0-0-0-0-0----------|
E|-0-0-0-0-0-0----------|
   * * * * * *

e|--------------------------------------------------------------|
B|--------------------------------------------------------------|
G|-------10-10-10-10-10-10-10------10-10-10-10-10-10------------|
D|--------------------------------------------------------------|
A|-0-0-0-8--8--8--8--8--8--8-0-0-0-8--8--8--8--8--8-0-0-0-0-0-0-|
E|-0-0-0---------------------0-0-0------------------0-0-0-0-0-0-|
                                                    * * * * * *
e|--------------------------------------------------------------|
B|--------------------------------------------------------------|
G|-------14-14-14-14-14-14-14-14--------------------------------|
D|--------------------------------------------------------------|
A|-0-0-0-12-12-12-12-12-12-12-12-0-0-0--------------------------|
E|-0-0-0-------------------------0-0-0--------------------------|

e|--------------------------------------------------------------|
B|--------------------------------------------------------------|
G|-15-15-15---14-14-14---12-12-12---14/15-----------------------|(2Xs)
D|--------------------------------------------------------------|
A|-13-13-13-0-12-12-12-0-10-10-10-0-12/13-----------------------|
E|----------0----------0----------0-----------------------------|

01:04-01:34
e|-------------------------------------------------|
B|-------------------------------------------------|
G|-------------------------------------------------|(12Xs)
D|-------------------------------------------------|
A|-------------------------------------------------|
E|-0-0-0-0--0-0-0--0-0-0-0-0-0-0-------------------|
   * * * *  * * *  * * * * * * *

============================================================================
Добавлено: 17.05.2012
Другие материалы по этой песне:
  • Аккорды и текст

Страница создана 17.05.2012
http://primanota.ru/drop-dead-gorgeous/knife-vs-face-round-ii-chords.htm
Привет, Гость.
Предлагаем пройти революционный курс по гитаре.
Подарок от PrimaNota.Ru, забирай!