PrimaNota.ru - самый крупный в мире бесплатный архив песенных текстов, аккордов, табулатур и нот


Drop Dead Gorgeous - Knife Vs Face Round I - таба, бас-таба, видео

Регистрация Запомнить меня
Войти через:  Facebook Google Twitter Vk Yandex Mail.ru

Drop Dead Gorgeous - Knife Vs Face Round I - таба, бас-таба, видео

Печатать
Просмотров: 156
Уроки эстрадного вокала в Санкт-Петербурге
-------------------------------------------------------------------------------
                             Knife Vs. Face Round 1 - Drop Dead, Gorgeous
-------------------------------------------------------------------------------
Tabbed by:DropDead1
Email:daniel_wherestheboat00@yahoo.com

Tuning:Drop C

00:00-00:19
Guitar 1
D|----------13----------------13-------------------|
A|-------11----11----------11----11----------11----|
F|----14----------14----14----------14----14----14-|
C|-12----------------12----------------12----------|
G|-------------------------------------------------|
C|-------------------------------------------------|

D|----------13----------------13-------------------|
A|-------11----11----------11----11----------11----|
F|----14----------14----14----------14----14----14-|
C|-------------------------------------------------|(4Xs)
G|-13----------------13----------------13----------|
C|-------------------------------------------------|

00:19-00:28
Both Guitars
D|-------------------------------------------------|
A|---11----------------11--------11----------------|
F|---14----------------14--------14----------------|
C|-------------------------------------------------|
G|-0-----0-0-0-0-----0-----0-0-0-------------------|
C|-0-----0-0-0-0-----0-----0-0-0-------------------|
   *     * * * *     *     * * *

00:29-00:47
Both Guitars
D|-------------------------------------------------------------------------|
A|-------------------------------------------------------------------------|
F|-------------------------------------------------------------------------|
C|-------------------------------------------------------------------------|
G|-0-0-0-0-0-0-0-0-8-8-8-8-8-8-8-8-7-7-7-7-7-7-7-7-10-10-10-10-10-10-10-10-|
C|-0-0-0-0-0-0-0-0-8-8-8-8-8-8-8-8-7-7-7-7-7-7-7-7-10-10-10-10-10-10-10-10-|
(2Xs)

00:48-01:12
Guitar 1
D|--------------------------------------------------------------------------|
A|--------------------------------------------------------------11-11-------|
F|--------------------------------------------------------------14-14-------|
C|--------------------------------------------------------------------------|
G|-0-0--0-0-0-0-0-0--0-0--0-0-0-0-0-0--0-0--0-0-0-0-0-0--0-0--0-------------|
C|-0-0--0-0-0-0-0-0--0-0--0-0-0-0-0-0--0-0--0-0-0-0-0-0--0-0--0-------------|
   * *  * * * * * *  * *  * * * * * *  * *  * * * * * *  * *  *

D|------------------------------------------------------------------------|
A|------------------------------------------------------------------------|
F|------------------------------------------------------------------------|
C|------------------------------------------------------------------------|
G|-0-0--0-0-0-0-0-0--0-0--0-0-0-0-0-0--8-8--8-8-8-8-8-8--8-8--8-8-8-8-8-8-|
C|-0-0--0-0-0-0-0-0--0-0--0-0-0-0-0-0--8-8--8-8-8-8-8-8--8-8--8-8-8-8-8-8-|
   * *  * * * * * *  * *  * * * * * *  * *  * * * * * *  * *  * * * * * *

D|------------------------------------------------------------------------|
A|------------------------------------------------------------------------|
F|------------------------------------------------------------------------|
C|------------------------------------------------------------------------|
G|-0-0--0-0-0-0-0-0--0-0--0-0-0-0-0-0--8-8--8-8-8-8-8-8--7-7--7-7-7-7-7-7-|
C|-0-0--0-0-0-0-0-0--0-0--0-0-0-0-0-0--8-8--8-8-8-8-8-8--7-7--7-7-7-7-7-7-|
   * *  * * * * * *  * *  * * * * * *  * *  * * * * * *  * *  * * * * * *

D|------------------------------------------------------------------------|
A|------------------------------------------------------------------------|
F|------------------------------------------------------------------------|
C|------------------------------------------------------------------------|
G|-0-0--0-0-0-0-0-0--0-0--0-0-0-0-0-0--8-8--8-8-8-8-8-8--8-8--8-8-8-8-8-8-|
C|-0-0--0-0-0-0-0-0--0-0--0-0-0-0-0-0--8-8--8-8-8-8-8-8--8-8--8-8-8-8-8-8-|
   * *  * * * * * *  * *  * * * * * *  * *  * * * * * *  * *  * * * * * *

D|-------------------------------------------|
A|-------------------------------------------|
F|-------------------------------------------|
C|-------------------------------------------|
G|-0-0--0-0-0-0-0-0--0-0--0-0-0-0-0-0--------|
C|-0-0--0-0-0-0-0-0--0-0--0-0-0-0-0-0--------|
   * *  * * * * * *  * *  * * * * * *

D|---------------------------------------------|
A|---------------------------------------------|
F|---------------------------------------------|
C|---------------------------------------------|
G|-8-8--8-8-8-8-8-8--10-10--10-10-10-10-10-10--|
C|-8-8--8-8-8-8-8-8--10-10--10-10-10-10-10-10--|
   * *  * * * * * *  *  *   *  *  *  *  *  *

00:53-01:12
Guitar 2
D|-------------------------------------------|
A|-------------------------------------------|
F|-10-10-9-9-7-7-10-10-9-9-7-7-10-10-12-12---|
C|-------------------------------------------|(8Xs)
G|-------------------------------------------|
C|-------------------------------------------|

01:12-01:21
Both Guitars
D|-------------------------------------------------|
A|---11----------------11--------11----------------|
F|---14----------------14--------14----------------|
C|-------------------------------------------------|
G|-0-----0-0-0-0-----0-----0-0-0-------------------|
C|-0-----0-0-0-0-----0-----0-0-0-------------------|
   *     * * * *     *     * * *
01:22-01:41
Both Guitars
D|-------------------------------------------------------------------------|
A|-------------------------------------------------------------------------|
F|-------------------------------------------------------------------------|
C|-------------------------------------------------------------------------|
G|-0-0-0-0-0-0-0-0-8-8-8-8-8-8-8-8-7-7-7-7-7-7-7-7-10-10-10-10-10-10-10-10-|
C|-0-0-0-0-0-0-0-0-8-8-8-8-8-8-8-8-7-7-7-7-7-7-7-7-10-10-10-10-10-10-10-10-|
(2Xs)

01:56-02:29
Both Guitars
D|----------------------------------------------------------|
A|------------------------------------------11-11-11--11-11-|
F|------------------------------------------14-14-14--14-14-|
C|----------------------------------------------------------|
G|-0-0--0-0--8-8--8-8-8-8-8--0-0--0-0--8-8------------------|
C|-0-0--0-0--8-8--8-8-8-8-8--0-0--0-0--8-8------------------|
   * *  * *  * *  * * * * *  * *  * *  * *

D|----------------------------------------------------------|
A|-----------7--7--7-------------7--7--7--------------------|
F|-----------10-10-10------------10-10-10-------------------|
C|----------------------------------------------------------|
G|-0-0-0-0-0-----------0-0-0-0-0----------------------------|
C|-0-0-0-0-0-----------0-0-0-0-0----------------------------|
   * * * * *           * * * * *

D|----------------------------------------------------------     ---|
A|-----------11-11-11------------11-11-11-------------------     ---|
F|-----------14-14-14------------14-14-14-------------------     ---|
C|----------------------------------------------------------(4Xs)-0-|
G|-0-0-0-0-0-----------0-0-0-0-0----------------------------     -0-|
C|-0-0-0-0-0-----------0-0-0-0-0----------------------------     -0-|
   * * * * *           * * * * *

And then there is the awsome piano solo part..if there are any errors tell me.its not 
different from the old one.
Добавлено: 13.03.2012
Другие материалы по этой песне:

Страница создана 02.03.2012
http://primanota.ru/drop-dead-gorgeous/knife-vs-face-round-i-chords.htm
Привет, Гость.
Предлагаем пройти революционный курс по гитаре.
Подарок от PrimaNota.Ru, забирай!