PrimaNota.ru - самый крупный в мире бесплатный архив песенных текстов, аккордов, табулатур и нот


Drop Dead Gorgeous - Its Pretty Hard To Beat The King - текст песни, таба, видео

Регистрация Запомнить меня
Войти через:  Facebook Google Twitter Vk Yandex Mail.ru

Drop Dead Gorgeous - Its Pretty Hard To Beat The King - текст песни, таба, видео

Печатать
Просмотров: 112
Pretty Hard To Beat The King
Drop Dead, Gorgeous
All guitars tuned in Drop C (CGCFAD)

Intro- Gtr 1,2
D|------------|
A|------------|
F|--9h11/13---|
C|--11h13/14--|
G|------------|
C|------------|

Gtr 1
D||----------------------------------------------------------------|
A||o---------------------------------------------------------------|
F||----------13-----12-----10-----9---------13-----12----10-----9--|
C||---------------------x------x----------------x------x-----x-----|
G||o---------11-----10--x--8---x--7---------11--x--10--x--8--x--7--|
C||--0--0-0------0------x------x-----0-0-0------x------x-----x-----|
Gtr 2
D||----------------------------------------------------------------|
A||o---------------------------------------------------------------|
F||----------13-----12-----10-----9---------13-----12----10-----9--|
C||---------------------x------x----------------0------0-----0-----|
G||o---------11-----10--x--8---x--7---------11--0--10--0--8--0--7--|
C||-----000------0------x------x-----0-0-0------0------0-----0-----|

Gtr 1
D|-------------------------------------------||
A|------------------------------------------o||
F|--9-9-9-9-9-9-9--13-13-13-13--12-12-12-12--||
C|-------------------------------------------||
G|--7-7-7-7-7-7-7--11-11-11-11--10-10-10-10-o||
C|-------------------------------------------||
Gtr 2
D|-------------------------------------------||
A|------------------------------------------o||
F|-----------------13-13-13-13--12-12-12-12--||
C|-------------------------------------------||
G|--7-7-7-7-7-7-7--11-11-11-11--10-10-10-10-o||
C|--7-7-7-7-7-7-7----------------------------||

Gtr 1,2                (gtr 1- 4,7s gtr 2- 12s)
D|-----------------------------------------|
A|----------------------4-4--4-------------|
F|----------------------7-7--7-------------|
C|--x-x--0----------0~~--/12-12--x-x--0----|
G|--x-x--0------0-0-0~~--/12-12--x-x--0----|
C|--x-x--0------0-0-0~~----------x-x--0----|
                pm-
D|-------------------------------------------------|
A|-------------------------------------------------|
F|-------------------------------------------------|
C|--x-x--0------x-x--0--x-x--0--x-x--0----0--0--0--|
G|--x-x--0------x-x--0--x-x--0--x-x--0----0--0--0--|
C|--x-x--0------x-x--0--x-x--0--x-x--0----0--0--0--|

Gtr 1
D||----------------------------------------------------|
A||o---------------------------------------------------|
F||----------------------------------------------------|
C||----------------------------------------------------|
G||o---------------------------------------------------|
C||--0-0--15p14p12-15p14p12/--0-0--14p12p11-14p12p11/--|

D|---------------------||
A|--------------------o||
F|---------------------||
C|---------------------||
G|--------------------o||
C|--0-0--11h12h14/15/--||

Gtr 1
D||----------------------------------------------------|
A||o---------------------------------------------------|
F||----------------------------------------------------|
C||----------------------------------------------------|
G||o---------------------------------------------------|
C||--0-0--15p14p12-15p14p12/--0-0--14p12p11-14p12p11/--|
Gtr 2
D||----------------------------------------------------|
A||o---------------------------------------------------|
F||----------------------------------------------------|
C||--0------------------x-x-x-0-0----------------------|
G||o-0------------------x-x-x-0-0----------------------|
C||--0------------------x-x-x-0-0----------------------|

                         X4
D|-----------------------||
A|----------------------o||
F|-----------------------||
C|-----------------------||
G|----------------------o||
C|----0-0--11h12h14/15/--||
                         X4
D|-----------------------||
A|----------------------o||
F|-----------------------||
C|--x-0------------------||
G|--x-0-----------------o||
C|--x-0------------------||

Gtr 1
D||----------------------------------------------------|
A||o---------------------------------------------------|
F||----------------------------------------------------|
C||----------------------------------------------------|
G||o---------------------------------------------------|
C||--0-0--15p14p12-15p14p12/--0-0--14p12p11-14p12p11/--|
Gtr 2
D||----------------------------------------------------|
A||o---------------------------------------------------|
F||----------------------------------------------------|
C||-------6p5p3---6p5p3------------5p3p2---5p3p2-------|
G||o---------------------------------------------------|
C||----------------------------------------------------|

D|---------------------||
A|--------------------o||
F|---------------------||
C|---------------------||
G|--------------------o||
C|--0-0--11h12h14/15/--||

D|---------------------||
A|--------------------o||
F|---------------------||
C|-------2h3h5/6/------||
G|--------------------o||
C|---------------------||

Gtr 1,2                (gtr 1- 4,7s gtr 2- 12s)
D|-----------------------------------------|
A|----------------------4-4--4-------------|
F|----------------------7-7--7-------------|
C|--x-x--0----------0~~--/12-12--x-x--0----|
G|--x-x--0------0-0-0~~--/12-12--x-x--0----|
C|--x-x--0------0-0-0~~----------x-x--0----|
                pm-
D|-------------------------------------------------------|
A|-------------------------------------------------------|
F|-------------------------------------------------------|
C|--x-x--0~------2------5-----4~-------------------------|
G|--x-x--0~--2-2-2--5-5-5-4-4-4~-------------------------|
C|--x-x--0~--2-2-2--5-5-5-4-4-4~--7-4-6-3-5-2-4-1-3-1~~--|
             pm-    - -   - -

Gtr 1
D|-----------------------------------------------------------|
A|-----------------------------------------------------------|
F|-----------------------------------------------------------|
C|-----------------------------------------------------------|
G|-----------------------------------------------------------|
C|--7-4-6-3-5-2-4-1-3-1--7---4---6---3---5---2---4---1-3-1b~-|
Gtr 2
D|-----------------------------------------------------------|
A|-----------------------------------------------------------|
F|-----------------------------------------------------------|
C|--9-6-8-5-7-4-6-3-5-3--9---6---8---5---7---4---6-----------|
G|-----------------------------------------------------------|
C|--9-6-8-5-7-4-6-3-5-3--9---6---8---5---7---4---6---3-5-3b--|

D|-----------------------------|
A|-----------------------------|
F|-----------------------------|
C|--x-0------0----0----0----0--|
G|--x-0------0----0----0----0--|
C|--x-0------0----0----0----0--|

Gtr 1
D||----------------------------------------------------------------|
A||o---------------------------------------------------------------|
F||----------13-----12-----10-----9---------13-----12----10-----9--|
C||---------------------x------x----------------x------x-----x-----|
G||o---------11-----10--x--8---x--7---------11--x--10--x--8--x--7--|
C||--0--0-0------0------x------x-----0-0-0------x------x-----x-----|

Gtr 1
D||----------------------------------------------------------------|
A||o---------------------------------------------------------------|
F||----------13-----12-----10-----9---------13-----12----10-----9--|
C||---------------------x------x----------------x------x-----x-----|
G||o---------11-----10--x--8---x--7---------11--x--10--x--8--x--7--|
C||--0--0-0------0------x------x-----0-0-0------x------x-----x-----|
Gtr 2
D||----------------------------------------------------------------|
A||o---------------------------------------------------------------|
F||----------13-----12-----10-----9---------13-----12----10-----9--|
C||---------------------x------x----------------0------0-----0-----|
G||o---------11-----10--x--8---x--7---------11--0--10--0--8--0--7--|
C||-----000------0------x------x-----0-0-0------0------0-----0-----|

Gtr 1
D|-------------------------------------------||
A|------------------------------------------o||
F|--9-9-9-9-9-9-9--13-13-13-13--12-12-12-12--||
C|-------------------------------------------||
G|--7-7-7-7-7-7-7--11-11-11-11--10-10-10-10-o||
C|-------------------------------------------||
Gtr 2
D|-------------------------------------------||
A|------------------------------------------o||
F|-----------------13-13-13-13--12-12-12-12--||
C|-------------------------------------------||
G|--7-7-7-7-7-7-7--11-11-11-11--10-10-10-10-o||
C|--7-7-7-7-7-7-7----------------------------||

Outro-
D||-------------x----x------------x-------------x-----x----------------||
A||o-x--------x--------x--------x---x--------------x---------x--------o||
F||-----x----x---x------x-----x-------x--------------------x----x----x-||
C||--------x-----x---------x-----------x-----x--------------------x----||
G||o-------------------------------------x----------------------------o||
C||-----------------------------------------x--------------------------||
For this part.. you use your right hand press the frets around the 15s through 20s
Its like going 20 down to 15.
You'll get the idea if you really know what I'm talking about
You don't really do anything just..
Use your right hand and press down on the strings and kinda move them around as you 
the frets and make this cool weird noise...
(move your hand in a dj motion like your messin around with a record player)
or a circular motion
Добавлено: 08.03.2012
Другие материалы по этой песне:
  • Аккорды и текст

Страница создана 08.03.2012
http://primanota.ru/drop-dead-gorgeous/its-pretty-hard-to-beat-the-king-chords.htm
Привет, Гость.
Предлагаем пройти революционный курс по гитаре.
Подарок от PrimaNota.Ru, забирай!