PrimaNota.ru - самый крупный в мире бесплатный архив песенных текстов, аккордов, табулатур и нот


Drop Dead Gorgeous - In Vouge - бас-таба, видео

Регистрация Запомнить меня
Войти через:  Facebook Google Twitter Vk Yandex Mail.ru

Drop Dead Gorgeous - In Vouge - бас-таба, видео

Печатать
Просмотров: 169
my second tab, well i tabbed it the same day as dressed for friend requests, just about 
cans of mountain dew later. this one might be a little off but here it is.

|------------------------------------------------------------------------------------|
|------------------------------------------------------------------------------------|
|------------------------------------------------------------------------------------|x4
|-33-567-33-67-----------------------------------------------------------------------|

|------------------------------------------------------------------------------------|
|------------------------------------------------------------------------------------|
|------------------------------------------------------------------------------------|x4
|-xxx-xxx-8--------------------------------------------------------------------------|

|------------------------------------------------------------------------------------|
|------------------------------------------------------------------------------------|
|------------------------------------------------------------------------------------|x4
|-00-6-6-00-6-6-3h5--00-6-6-00-8-8-3h5-----------------------------------------------|

|------------------------------------------------------------------------------------|
|------------------------------------------------------------------------------------|
|------------------------------------------------------------------------------------|x4
|-7~~~~~~~---------------------------------------------------------------------------|

|------------------------------------------------------------------------------------|
|------------------------------------------------------------------------------------|
|------------------------------------------------------------------------------------|x4
|-0000-00-0-0-0-0-0000-0-------------------------------------------------------------|

|------------------------------------------------------------------------------------|
|------------------------------------------------------------------------------------|
|------------------------------------------------------------------------------------|
|-8~~~~~-----------------------------------------------------------------------------|

|------------------------------------------------------------------------------------|
|------------------------------------------------------------------------------------|
|------------------------------------------------------------------------------------|x4
|-0000-00-0-0-0-0-0000-0-------------------------------------------------------------|

|------------------------------------------------------------------------------------|
|------------------------------------------------------------------------------------|
|------------------------------------------------------------------------------------|
|-5~~~~~~~~-5~~~~~~~~~~--------------------------------------------------------------|

enjoy.
Добавлено: 26.02.2012
Другие материалы по этой песне:
  • Аккорды и текст

Страница создана 26.02.2012
http://primanota.ru/drop-dead-gorgeous/in-vouge-chords.htm
Привет, Гость.
Предлагаем пройти революционный курс по гитаре.
Подарок от PrimaNota.Ru, забирай!