PrimaNota.ru - самый крупный в мире бесплатный архив песенных текстов, аккордов, табулатур и нот


Drop Dead Gorgeous - In Vogue - текст песни, таба, бас-таба, видео

Регистрация Запомнить меня
Войти через:  Facebook Google Twitter Vk Yandex Mail.ru

Drop Dead Gorgeous - In Vogue - текст песни, таба, бас-таба, видео

Печатать
Просмотров: 204
-------------------------------------------------------------------------------
                             In Vogue - Drop Dead, Gorgeous
-------------------------------------------------------------------------------
Tabbed by:DropDead1
Email:daniel_wherestheboat00@yahoo.com

I did this one fast so if any problems tell me.


Tuning:Drop C

00:00-00:20
Both guitars
D|--------------------------------------------------|
A|-----7--7--7--7------7--7--7--7-/11-11-11-11------|
F|-----10-10-10-10-----10-10-10-10/14-14-14-14------|
C|--------------------------------------------------|(4Xs)
G|-0-0-------------0-0------------------------------|
C|-0-0-------------0-0------------------------------|
   * *             * *
D|--------------------------------------------------|
A|--------------------------------------------------|
F|--------------------------------------------------|
C|--------------------------------------------------|(4Xs)
G|-0-0-0--0-0-0--0----------------------------------|
C|-0-0-0--0-0-0--0----------------------------------|
   * * *  * * *

00:20-00:36
Guitar 1
D|--------------------------------------------------|
A|--------------------------------------------------|
F|-----10-10-----10-10-----7/9----------------------|
C|--------------------------------------------------|
G|-0-0-8--8--0-0-8--8--0-0-5/7----------------------|
C|-0-0-------0-0-------0-0--------------------------|
   * *       * *       * *
D|--------------------------------------------------|
A|--------------------------------------------------|
F|-----10-10-----12-12------7/9---------------------|
C|--------------------------------------------------|(4Xs)
G|-0-0-8--8--0-0-10-10--0-0-5/7---------------------|
C|-0-0-------0-0--------0-0-------------------------|
   * *       * *        * *

00:20-00:37
Guitar 2
D|--------------------------------------------------|
A|--------------------------------------------------|
F|-----14-14------14-14------7/9--------------------|
C|--------------------------------------------------|
G|-0-0-12-12--0-0-12-12--0-0-5/7--------------------|
C|-0-0--------0-0--------0-0------------------------|
   * *        * *        * *
D|--------------------------------------------------|
A|--------------------------------------------------|
F|-----14-14------15-15------7/9--------------------|
C|--------------------------------------------------|(2Xs)
G|-0-0-12-12--0-0-13-13--0-0-5/7--------------------|
C|-0-0--------0-0--------0-0------------------------|
   * *        * *        * *

00:37-00:48
Both guitars
D|-----------------------------------|
A|---------------------11-11-11------|
F|---------------------14-14-14------|
C|-----------------------------------|
G|-0-0-0-0-----------------------0---|
C|-0-0-0-0-----------------------0---|
   * * *               *  *  *

00:49-01:11
Guitar 1
D|----------------------------------------------|
A|----------------------------------------------|
F|----------------------------------------------|
C|----------------------------------------------|
G|-0-0-0-0--0-0--0-0-0--0-0-0--0-0-0--0-0-0-----|
C|-0-0-0-0--0-0--0-0-0--0-0-0--0-0-0--0-0-0-----|
   * * * *  * *  * * *  * * *  * * *  * * *
D|----------------------------------------------     ---|
A|--------------7--7--7--7--7--7--7--7----------     ---|
F|--------------10-10-10-10-10-10-10-10---------     ---|
C|----------------------------------------------(4Xs)-0-|
G|-0-0-0-0--0-0---------------------------------     -0-|
C|-0-0-0-0--0-0---------------------------------     -0-|
   * * * *  * *

00:49-01:11
Guitar 2
D|----------------------------------------------|
A|----------------------------------------------|
F|----------------------------------------------|
C|----------------------------------------------|
G|-0-0-0-0--0-0--0-0-0--0-0-0--0-0-0--0-0-0-----|
C|-0-0-0-0--0-0--0-0-0--0-0-0--0-0-0--0-0-0-----|
   * * * *  * *  * * *  * * *  * * *  * * *
D|----------------------------------------------     ---|
A|--------------7--7--7--7--11-11-11-11---------     ---|
F|--------------10-10-10-10-14-14-14-14---------     ---|
C|----------------------------------------------(4Xs)-0-|
G|-0-0-0-0--0-0---------------------------------     -0-|
C|-0-0-0-0--0-0---------------------------------     -0-|
   * * * *  * *

01:17-01:53
Both guitars
D|-----------------------------------------------------------|
A|-----------------------------------------------------------|
F|-----------------------------------------------------------|
C|-----------------------------------------------------------|
G|-0-0-0-0--0-0--0-0-0--0-0-0--0-0-0--0-0-0--0-0-0-0--0-0--0-|
C|-0-0-0-0--0-0--0-0-0--0-0-0--0-0-0--0-0-0--0-0-0-0--0-0--0-|
   * * * *  * *  * * *  * * *  * * *  * * *  * * * *  * *  *
D|------------------|
A|------------------|
F|------------------|
C|------------------|
G|-0------------0---|
C|-0------------0---|
Добавлено: 19.03.2012
Другие материалы по этой песне:
  • Аккорды и текст

Страница создана 19.03.2012
http://primanota.ru/drop-dead-gorgeous/in-vogue-chords.htm
Привет, Гость.
Предлагаем пройти революционный курс по гитаре.
Подарок от PrimaNota.Ru, забирай!