PrimaNota.ru - самый крупный в мире бесплатный архив песенных текстов, аккордов, табулатур и нот


Drop Dead Gorgeous - Girl Are You On Your - текст песни, таба, бас-таба, видео

Регистрация Запомнить меня
Войти через:  Facebook Google Twitter Vk Yandex Mail.ru

Drop Dead Gorgeous - Girl Are You On Your - текст песни, таба, бас-таба, видео

Печатать
Просмотров: 163
This song is pro ownaged!!! Umm well some parts of my tab i am not sure about, but they 
okay to me. Anything wrong just tell me :)
Enjoy.

G1

INTRO:

|---|
|---|
|---|
|-0-|	          Strum this while the volume knob is 0,
|-0-|                 then slowly increase the volume.
|-0-|


|-0-----|
|-6-----|
|-9B10--|	JUST PLAY THIS FOR THE WHOLE INTRO
|-------|
|-------|
|-------|

PRE-VERSE:

|-----------------------|
|-10-------10-----------|
|-----------------------|
|- 7------- 7-----------|
|-----------------------|
|----00-00----00-00-00--|
     .. ..    .. .. ..

VERSE:

|------------------------5-------------------------5----|
|-10-------10----------6---6--8-------8----------6---6--|
|-------------------------------------------------------|	X4
|- 7------- 7----5h7h8--------5-------5----5h7h8--------|
|-------------------------------------------------------|
|----00-00----00----------------00-00---00--------------|
     .. ..    ..                .. ..   ..

CHORUS:

|------------------------------------------------X-X--X-X--|
|------------------------------------------------X-X--X-X--|
|---------------------------3--3-3--3-3--5--5-5--X-X--X-X--|	X2
|-0--0-0--0-0--0--0-0--0-0--3--3-3--3-3--5--5-5--X-X--X-X--|
|-0--0-0--0-0--0--0-0--0-0--1--1-1--1-1--3--3-3--X-X--X-X--|
|-0--0-0--0-0--0--0-0--0-0---------------------------------|

|------------------------------------------------------|
|------------------------------------------------------|
|---------7/3----------7/3--3--3-3--7/3--5--5-5--7/3---|
|-0--0-0-------0--0-0-------3--3-3-------5--5-5--------|	X4
|-0--0-0—-5/1--0--0-0--5/1--1--1-1—-5/1--3--3-3—-5/1---|
|-0--0-0-------0--0-0----------------------------------|

LET'S JUST CALL THIS THE BREAK-DOWN:

|---------------------------------------------------|
|---------------------------------------------------|
|-12-12-12-12-12-12-12-12--10-10-10-10-10-10-10-10--|
|---------------------------------------------------|			X2
|-10-10-10-10-10-10-10-10-- 8- 8- 8- 8- 8- 8- 8- 8--|
|---------------------------------------------------|

|---------------------------------------------------|
|---------------------------------------------------|
|-12-12-12-12-12-12-12-12--14-14-14-14-14-14-14-14--|
|---------------------------------------------------|
|-10-10-10-10-10-10-10-10--12-12-12-12-12-12-12-12--|
|---------------------------------------------------|

|---------------------------------------------------|
|---------------------------------------------------|
|-15-15-15-15-15-15-15-15--17-17-17-17-17-17-17-17--|
|---------------------------------------------------|
|-13-13-13-13-13-13-13-13--15-15-15-15-15-15-15-15--|
|---------------------------------------------------|

|--------------|
|-6----6----6--|
|-9b10-9b10-9--|		REPEAT THIS UNTIL YOU CAN'T HEAR IT ANYMORE
|--------------|
|--------------|
|--------------|

|-------------------------------|
|-------------------------------|
|-------------------------------|
|-000-0--0-000-0--000--0-000-0--|
|-000-0--0-000-0--000--0-000-0--|
|-000-0--0-000-0--000--0-000-0--|
  ... .  . ... .  ...  . ... .


|-------------------------------------------------------|
|-------------------------------------------------------|
|-7-------7-7/9-------9-9/10-------10-12/10----10-9-----|	X5
|-------------------------------------------------------|
|-5-0-0-0-5-5/7-0-0-0-7-7/ 8-0-0-0- 8-10/ 8—00- 8-7-00--|
|---0-0-0-------0-0-0--------0-0-0----------00------00--|
    . . .       . . .        . . .          ..

|-------------------------------------------------------|
|-------------------------------------------------------|
|-7-------7-7/9-------9-9/10-------10-12/10----10-9-7~--|
|-------------------------------------------------------|
|-5-0-0-0-5-5/7-0-0-0-7-7/ 8-0-0-0- 8-10/ 8—00- 8-7-5~--|
|---0-0-0-------0-0-0--------0-0-0----------00----------|
    . . .       . . .        . . .          ..
VERSE:

|------------------------5-------------------------5----|
|-10-------10----------6---6--8-------8----------6---6--|
|-------------------------------------------------------|	X4
|- 7------- 7----5h7h8--------5-------5----5h7h8--------|
|-------------------------------------------------------|
|----00-00----00----------------00-00---00--------------|
     .. ..    ..                .. ..   ..


|----|
|----|
|----|
|-0~-|
|-0~-|
|-0~-|

G2

INTRO:

|---|
|---|
|---|
|-0-|	          Strum this once while the volume knob is 0,
|-0-|                 then slowly increase the volume.
|-0-|

|------------------------------------|
|------------------------------------|
|------------------------------------|		The Strumming is weird to tab out
|-0--------8--------10-------3-------|     please just try to figure it out
|-0—(x28)--8-(x14)--10-(x7)--3-(x7)--|
|-0--------8--------10-------3-------|

PRE-VERSE:

|------------------------|
|------------------------|
|-10--------10-----------|
|------------------------|
|- 8-------- 8-----------|
|----00-00-----00-00-00--|
     .. ..     .. .. ..

VERSE:

|----------------------------------------------------------------|
|--------------------------10-----------------------------10-----|
|-10-------10-----------10----10--9--------9-----------10----10--| X4
|----------------------------------------------------------------|
|- 8-00-00- 8-00-10h12h13---------7-00-00--7-00-10h12h13---------|
|----00-00----00--------------------00-00----00------------------|
     .. ..    ..                     .. ..    ..

CHORUS:

|------------------------------------------------------------|
|------------------------------------------------------------|
|------------------------------------------------------------|
|-0--0-0--0-0--0--0-0-0-0--8--8-8--8-8--10--10-10--X-X--X-X--| X2
|-0--0-0--0-0--0--0-0-0-0--8--8-8--8-8--10--10-10--X-X--X-X--|
|-0--0-0--0-0--0--0-0-0-0--8--8-8--8-8--10--10-10--X-X--X-X--|

|-----------------------------------------------------|
|-----------------------------------------------------|
|--------14//--------14//--------14//-----------14//--| X4
|-0--0-0------0--0-0------8--8-8------10--10-10-------|
|-0--0-0-12//-0--0-0-12//-8--8-8-12//-10--10-10-12//--|
|-0--0-0------0--0-0------8--8-8------10--10-10-------|

BREAK-DOWN:

|-----|
|-----|
|-----|
|-0-0-|
|-0-0-|
|-0-0-|
  . .

(G1 does his stuff)

|-------------------------------|
|-------------------------------|
|-------------------------------|
|-000-0--0-000-0--000--0-000-0--| X2
|-000-0--0-000-0--000--0-000-0--|
|-000-0--0-000-0--000--0-000-0--|
  ... .  . ... .  ...  . ... .

|-------------------------------------------------------|
|-------------------------------------------------------|
|-7-------7-7/9-------9-9/10-------10-12/10----10-9-----|	X2
|-------------------------------------------------------|
|-5-0-0-0-5-5/7-0-0-0-7-7/ 8-0-0-0- 8-10/ 8—00- 8-7-00--|
|---0-0-0-------0-0-0--------0-0-0----------00------00--|
    . . .       . . .        . . .          ..

|--------------------------------------------------------|
|--------------------------------------------------------|
|-7-------7-7/9-------9-9/10-------10-15/14----14-12-----|	X3
|--------------------------------------------------------|
|-5-0-0-0-5-5/7-0-0-0-7-7/ 8-0-0-0- 8-13/12—00-12-10-00--|
|---0-0-0-------0-0-0--------0-0-0----------00-------00--|
    . . .       . . .        . . .          ..

|---------------------------------------------------------|
|---------------------------------------------------------|
|-7-------7-7/9-------9-9/10-------10-15/14----14-12-10~--|
|---------------------------------------------------------|
|-5-0-0-0-5-5/7-0-0-0-7-7/ 8-0-0-0- 8-13/12—00-12-10- 8~--|
|---0-0-0-------0-0-0--------0-0-0----------00------------|
    . . .       . . .        . . .          ..

VERSE:

|----------------------------------------------------------------|
|--------------------------10-----------------------------10-----|
|-10-------10-----------10----10--9--------9-----------10----10--| X4
|----------------------------------------------------------------|
|- 8-00-00- 8-00-10h12h13---------7-00-00--7-00-10h12h13---------|
|----00-00----00--------------------00-00----00------------------|
     .. ..    ..                     .. ..    ..

|----|
|----|
|----|
|-0~-|
|-0~-|
|-0~-|
Добавлено: 07.03.2012
Другие материалы по этой песне:
  • Аккорды и текст

Страница создана 05.03.2012
http://primanota.ru/drop-dead-gorgeous/girl-are-you-on-your-chords.htm
Привет, Гость.
Предлагаем пройти революционный курс по гитаре.
Подарок от PrimaNota.Ru, забирай!