PrimaNota.ru - самый крупный в мире бесплатный архив песенных текстов, аккордов, табулатур и нот


Drop Dead Gorgeous - Forever Scarlet - текст песни, таба, видео

Регистрация Запомнить меня
Войти через:  Facebook Google Twitter Vk Yandex Mail.ru

Drop Dead Gorgeous - Forever Scarlet - текст песни, таба, видео

Печатать
Просмотров: 117
ok ther might be a few mistakes... but this is only my 2nd DDG tab so be nice


Intro

guitar 1   4X
D----------------------------------------------------------------------|
A---------10------------10-----------------10------111111111111--------|
F-----8p0-----------8p0----------------8p0---------141414141414--------|
C----------------------------------------------------------------------|
G----------------------------------------------------------------------|
C----------------------------------------------------------------------|


guitar 2   4X
D----------------------------------------------------------------------|
A---------------------------------------------------111111111111-------|
F---------------------------------------------------141414141414-------|
C-00-----------00-------------0-0-000----------00----------------------|
G-00-----------00-------------0-0-000----------00----------------------|
C-00-----------00-------------0-0-000----------00----------------------|
  ..           ..             . . ...          ..

___________________________________________________________________________

guitar 1
D----  D--------------------------------------------------------|
A----  A--------------------------------------------------------|
F----  F--------------------------------------------4X----------|
C-0~-  C--101210-------101210-------101210----------------1210--|
G-0~-  G---------12108--------12108--------12-------------------|
C-0~-  C--------------------------------------------------------|


guitar 2
D----  D-----------------------------------------------------|
A----  A-----------------------------------------------------|
F----  F---------------------------------------4X------------|
C-0~-  C-----787------787------787-------------------78------|
G-0~-  G---------1087-----1087-----10------------------------|
C-0~-  C-----------------------------------------------------|

___________________________________________________________________________

guitar 1
D-------------------------------------------------------------------------|
A-----11----11----11----11----11----11----11----11----11----11----11------|
F-----14----14----14----14----14----14----14----14----14----14----14------|
C-------------------------------------------------------------------------|
G-------------------------------------------------------------------------|
C-------------------------------------------------------------------------|


guitar 2
D-------------------------------------------------------------------------|
A-------------------------------------------------------------------------|
F-------------------------------------------------------------------------|
C-------------------------------------------------------------------------|
G-0000--0000--0000--0000--0000--0000--0000--0000--0000--0000--0000--------|
C-0000--0000--0000--0000--0000--0000--0000--0000--0000--0000--0000--------|
  ....  ....  ....  ....  ....  ....  ....  ....  ....  ....  ....

__________________________________________________________________________

guitar 1
D--------------------------------------------------------------------------|
A------------11----11----11----11----11----11----11----11----11----11---11-|
F------------14----14----14----14----14----14----14----14----14----14---14-|
C--0-0-0-------------------------------------------------------------------|
G--0-0-0-------------------------------------------------------------------|
C--0-0-0-------------------------------------------------------------------|
   . . .

guitar 2
D--------------------------------------------------------------------------|
A--------------------------------------------------------------------------|
F--------------------------------------------------------------------------|
C-0-0-0--------------------------------------------------------------------|
G-0-0-0--0000--0000--0000--0000--0000--0000--0000--0000--0000--0000--0000--|
C-0-0-0--0000--0000--0000--0000--0000--0000--0000--0000--0000--0000--0000--|
  . . .  ....  ....  ....  ....  ....  ....  ....  ....  ....  ....  ....

___________________________________________________________________________


guitar 1
-------------------------------|
--111111111111111111111111-----|
--141414141414141414141414-----|
-------------------------------|
-------------------------------|
-------------------------------|


guitar 2
-------------------------------|
-------------------------------|
-------------------------------|
-------------------------------|
-------------------------------|
-------------------------------|


___________________________________________________________________________


guitar 1
D-------------------------------------------------------------------------|
A-----11----11----11----11----11----11----11----11----11----11----11------|
F-----14----14----14----14----14----14----14----14----14----14----14------|
C-------------------------------------------------------------------------|
G-------------------------------------------------------------------------|
C-------------------------------------------------------------------------|


guitar 2
D-------------------------------------------------------------------------|
A-------------------------------------------------------------------------|
F-------------------------------------------------------------------------|
C-------------------------------------------------------------------------|
G-0000--0000--0000--0000--0000--0000--0000--0000--0000--0000--0000--------|
C-0000--0000--0000--0000--0000--0000--0000--0000--0000--0000--0000--------|
  ....  ....  ....  ....  ....  ....  ....  ....  ....  ....  ....

___________________________________________________________________________

guitar1 Im not 100% sure that this is right but its as close as I can get.
D-------------------------------------------------------------------------|
A-16---------15151515----16---------15--------16--------15------16--------|
F-19--28X----19191919----19--28X----19--8X----19--14X---19--8X--19--16X---|
C-------------------------------------------------------------------------|
G-------------------------------------------------------------------------|
C-------------------------------------------------------------------------|

guitar 2
D---------------------------------------------------------------------|
A---------------------------------------------------------------------|
F---------------------------------------------------------------------|
C-0-0-0-0-0-0-0-0-0-0-0-0-0-0-0-0-0-0-0-0-----------------------------|
G-0-0-0-0-0-0-0-0-0-0-0-0-0-0-0-0-0-0-0-0--(cont.-till-end-of-song)---|
C-0-0-0-0-0-0-0-0-0-0-0-0-0-0-0-0-0-0-0-0-----------------------------|
  . . . . . . . . . . . . . . . . . . . .

END ON THIS

guitar 1
---------------|
----15~--------|
----19~--------|
---------------|
---------------|
---------------|

guitar 2
---------------|
---------------|
---------------|
----0----------|
----0----------|
----0----------|
    .


there it is hope its good a good tab...
Добавлено: 18.03.2012
Другие материалы по этой песне:
  • Аккорды и текст

Страница создана 18.03.2012
http://primanota.ru/drop-dead-gorgeous/forever-scarlet-chords.htm
Привет, Гость.
Предлагаем пройти революционный курс по гитаре.
Подарок от PrimaNota.Ru, забирай!