PrimaNota.ru - самый крупный в мире бесплатный архив песенных текстов, аккордов, табулатур и нот


Drop Dead Gorgeous - Fashion Your Seatbelts - текст песни, бас-таба, видео

Регистрация Запомнить меня
Войти через:  Facebook Google Twitter Vk Yandex Mail.ru

Drop Dead Gorgeous - Fashion Your Seatbelts - текст песни, бас-таба, видео

Печатать
Просмотров: 122
drop dead, gorgeous.
fashion your seatbelts.

|-------------------------------------------------------------------|
|-------------------------------------------------------------------|
|-------------------------------------------------------------------|x3
|-0-0-0-4-0-4-0-0-0-4-0-4-0-0-0-4-0-4-short pause, then do it again-|
  
|-------------------------------------------------------------------|
|-------------------------------------------------------------------|
|-------------------------------------------------------------------|
|-0-0-0-4-0-4-0-0-0-4-0-4-0-0-0-4-0-4-1--1--1--1--0~~---------------|

|-------------------------------------------------------------------|
|-------------------------------------------------------------------|
|-------------------------------------------------------------------|x5
|-0-0-0-5-4-00000000------------------------------------------------|

|-------------------------------------------------------------------|
|-------------------------------------------------------------------|
|-------------------------------------------------------------------|
|-55-44-2222-4444---------------------------------------------------|
x4
|-------------------------------------------------------------------|
|-------------------------------------------------------------------|
|-3h5p0-7h8p0 3h5p0 7h8p0 3h5 --------------------------------------|
|-------------------------------------------------------------------|

|-------------------------------------------------------------------|
|-------------------------------------------------------------------|
|-------------------------------------------------------------------|x4
|-000-000-000-----000-000-000---------------------------------------|

|-------------------------------------------------------------------|
|-------------------------------------------------------------------|
|-------------------------------------------------------------------|x2
|-000-555-44444-----------------------------------------------------|

|-------------------------------------------------------------------|
|-------------------------------------------------------------------|
|-------------------------------------------------------------------|x4
|-0000-0000-5555-4444-----------------------------------------------|

|-------------------------------------------------------------------|
|-------------------------------------------------------------------|
|-------------------------------------------------------------------|
|-000-000-000-------------------------------------------------------|
Добавлено: 14.06.2012
Другие материалы по этой песне:

Страница создана 23.05.2012
http://primanota.ru/drop-dead-gorgeous/fashion-your-seatbelts-chords.htm
Привет, Гость.
Предлагаем пройти революционный курс по гитаре.
Подарок от PrimaNota.Ru, забирай!