PrimaNota.ru - самый крупный в мире бесплатный архив песенных текстов, аккордов, табулатур и нот


Drop Dead Gorgeous - Fashion Your Seatbelt - таба, видео

Регистрация Запомнить меня
Войти через:  Facebook Google Twitter Vk Yandex Mail.ru

Drop Dead Gorgeous - Fashion Your Seatbelt - таба, видео

Печатать
Просмотров: 102
-------------------------------------------------------------------------------
                             Fashion Your Seatbelt - Drop Dead, Gorgeous
-------------------------------------------------------------------------------
Tabbed by:DropDead1
Email:daniel_wherestheboat00@yahoo.com

Tuning:Drop C

00:09-00:33
D|----------------------------------------------|
A|------7----7--------7----7--------7----7------|
F|------10---10-------10---10-------10---10-----|
C|----------------------------------------------|(4Xs)
G|-0-0-0---0----0-0-0----0----0-0-0----0----0---|
C|-0-0-0---0----0-0-0----0----0-0-0----0----0---|
   * * *   *    * * *    *    * * *    *    *
D|----------------------------------------------|
A|----------------------------------------------|
F|----------------------------------------------|
C|----------------------------------------------|
G|-0--0--0--0--0--------------------------------|
C|-0--0--0--0--0--------------------------------|
   *  *  *  *

00:33-00:46
D|-----------------------------------------------|
A|-----------------------------------------------|
F|-------1514-------------12/14-14---------------|
C|-----------------------------------------------|(5Xs)
G|-0-0-0-1312-0-0-0-0-0-0-10/12-12---------------|
C|-0-0-0-------0-0-0-0-0-0-----------------------|
   * * *       * * * * * *

00:46-00:58
D|-------------------------------------------------|
A|-------------------------------------------------|
F|-15-15-15-15-14-14-14-14-12-12-12-12-14-14-14-14-|
C|-------------------------------------------------|(4Xs)
G|-13-13-13-13-12-12-12-12-10-10-10-10-12-12-12-12-|
C|-------------------------------------------------|

D|----------------------------------------------|
A|----------------------------------------------|
F|----------------------------------------------|
C|----------------------------------------------|
G|-3h5p0-7h8p0-3h5p0-7h8p0-3h5------------------|
C|----------------------------------------------|

00:59-01:21
D|-------------------------------------------------------------|
A|-------------------------------------------------------------|
F|-------------------------------------------------------------|
C|-------------------------------------------------------------|
G|-0-0-0-0--0-0-0-0--0-0-0-0-------0-0-0-0--0-0-0-0--0-0-0-0---|
C|-0-0-0-0--0-0-0-0--0-0-0-0-------0-0-0-0--0-0-0-0--0-0-0-0---|
   * * * *  * * * *  * * * *       * * * *  * * * *  * * * *
D|-----------------------------------------------------------------|
A|-----------------------------------------------------------11-11-|
F|-----------------------------------------------------------14-14-|
C|-----------------------------------------------------------------|
G|-0-0-0-0--0-0-0-0--0-0-0-0-------0-0-0-0--0-0-0-0--0-0-0-0-------|
C|-0-0-0-0--0-0-0-0--0-0-0-0-------0-0-0-0--0-0-0-0--0-0-0-0-------|
   * * * *  * * * *  * * * *       * * * *  * * * *  * * * *
D|-----------------------------------------------------------------------|
A|---------------------------7--7--7----------------------------11-11-11-|
F|---------------------------10-10-10---------------------------14-14-14-|
C|-----------------------------------------------------------------------|
G|-0-0-0-0--0-0-0-0--0-0-0-0----------0-0-0-0--0-0-0-0--0-0-0-0----------|
C|-0-0-0-0--0-0-0-0--0-0-0-0----------0-0-0-0--0-0-0-0--0-0-0-0----------|
   * * * *  * * * *  * * * *          * * * *  * * * *  * * * *
D|-----------------------------------------------------------------------|
A|---------7----------7----------7--------7--7--7------------------------|
F|---------10---------10---------10-------10-10-10-----------------------|
C|-----------------------------------------------------------------------|
G|-0-0-0-0----0-0-0-0----0-0-0-0-----------------------------------------|
C|-0-0-0-0----0-0-0-0----0-0-0-0-----------------------------------------|
   * * * *    * * * *    * * * *
D|-----------------------------------------------------------------------|
A|---------7----------7----------7--------11-11-11-----------------------|
F|---------10---------10---------10-------14-14-14-----------------------|
C|-----------------------------------------------------------------------|
G|-0-0-0-0----0-0-0-0----0-0-0-0-------------------0---------------------|
C|-0-0-0-0----0-0-0-0----0-0-0-0-------------------0---------------------|
   * * * *    * * * *    * * * *

01:26-01:35
D|-------------------------------------|
A|-------------------------------------|
F|-------------------------------------|
C|-------------------------------------|(2Xs)
G|-0-0-0---8-8-8--7--------------------|
C|-0-0-0---8-8-8--7--------------------|

01:36-01:59
D|------------------------------------------------------------|
A|------------------------------------------------------------|
F|------------------------------------------------------------|
C|-------------7-------------------------------7---10--8-7----|(4Xs)
G|-0-0-0-0-7h8---8-0-0-0-0-7h8h10p8-0-0-0-0-7h8--8------------|
C|-0-0-0-0---------0-0-0-0----------0-0-0-0-------------------|
   * * * *         * * * *          * * * *
D|-------------------------------------|
A|-------------------------------------|
F|-------------------------------------|
C|-------------------------------------|
G|-0-0---0-0-0--0-0-0------------------|
C|-0-0---0-0-0--0-0-0------------------|
   * *   * * *  * * *
Добавлено: 15.05.2012
Другие материалы по этой песне:

Страница создана 04.04.2012
http://primanota.ru/drop-dead-gorgeous/fashion-your-seatbelt-chords.htm
Привет, Гость.
Предлагаем пройти революционный курс по гитаре.
Подарок от PrimaNota.Ru, забирай!