PrimaNota.ru - самый крупный в мире бесплатный архив песенных текстов, аккордов, табулатур и нот


Drop Dead Gorgeous - Fame - текст песни, таба, видео

Регистрация Запомнить меня
Войти через:  Facebook Google Twitter Vk Yandex Mail.ru

Drop Dead Gorgeous - Fame - текст песни, таба, видео

Печатать
Просмотров: 213
Drop Dead, Gorgeous
Fame 
The Hot N' Heavy

Tabbed by Dain Herndon

This song is pretty straight forward
Im sure theres a couple parts in this tab that are wrong
If you can fix one of the mistakes, comment this please with a correction! 
thanks :) 


Just a tattoo..
D|--------------------------------------|
A|--------------------------------------|
F|-----------77776666-------------------|
C|---00000000xxxxxxxx7777777788887777---|  x3
G|---00000000555544447777777788887777---|
C|---00000000--------7777777788887777---|


D|--------------------------------------|
A|--------------------------------------|
F|-----------77776666-------------------|
C|---00000000xxxxxxxx7777777788887777\--|  
G|---00000000555544447777777788887777\--|
C|---00000000--------7777777788887777\--|

(I think these harmonics might be wrong)
So search for me... 
D|------*5------*7-------*5-------------|
A|------*5------*7-------*5-------------|
F|--------------------------------------|
C|---0-------0--------0--------88887777-|  x2
G|---0-------0--------0--------88887777-|
C|---0-------0--------0--------88887777-|


You had it all in your hands, but you threw it away.
D|-------------------|
A|-------------------|
F|-------------------|
C|--0-------08-7-0---|  
G|--0-------08-7-0---|
C|--0-------08-7-0---|
pm               *


(This part is wrong, but this is the closest i could get)
I wont come down...
D|---------7p4----------7p4-7p4-----------7p4-7p4--------------|
A|-------------6h3--1/4---------6h3--1/4----------6h3--1/4-----|
F|-------------------------------------------------------------|
C|---0---------------------------------------------------------|  
G|---0---------------------------------------------------------|
C|---0---------------------------------------------------------|


D|--7p4-7p4-----------7p4----------|
A|----------6h3--1/4---------------|
F|---------------------------------|
C|---------------------------0-----|  
G|---------------------------0-----|
C|---------------------------0-----|
pm                           *

I thought you'd never go...
D|--------------------------------------|
A|--------------------------------------|
F|-----------77776666-------------------|
C|---00000000xxxxxxxx7777777788887777---|  x4
G|---00000000555544447777777788887777---|
C|---00000000--------7777777788887777---|


I hope this murder finds you well....
D|------------------------------------------------|
A|------------------------------------------------|
F|------------------------------------------------|
C|---0---------0----0--0----0-----0-----0--0----0-|  
G----0---------0----0--0----0-----0-----0--0----0-|
C|---0---------0----0--0----0-----0-----0--0----0-|


D|---------------------------------------------------------------|
A|---------------------------------------------------------------|
F|---------------------------------------------------------------|
C|---0000-----0000--0000----0000----0000-----0000--0000---0000---|
G|---0000-----0000--0000----0000----0000-----0000--0000---0000---|
C|---0000-----0000--0000----0000----0000-----0000--0000---0000---|
pm   ****     ****  ****    ****    ****     ****  ****   ****

(Let notes ring) 
D|---------------------------------------------------------------|
A|---------------------------------------------------------------|
F|---------------------------------------------------------------|
C|---0000-----0000--0000----0000----0000-----0000--0000------0---|
G|---0000-----0000--0000----0000----0000-----0000--0000------0---|
C|---0000-----0000--0000----0000----0000-----0000--0000------0---|
pm   ****     ****  ****    ****    ****     ****  ****   


I thought you'd never go...
D|------------------------------------------------------------|
A|------------------------------------------------------------|
F|-------------------------7---6------------------------------|
C|---0---------0--00000000-x---x---7--77777777--8--7-7-7-7----| x2
G|---0---------0--00000000-5---4---7--77777777--8--7-7-7-7----|
C|---0---------0--00000000---------7--77777777--8--7-7-7-7----|
pm                ********         *  ********     * * * *


At the end of the rope, we'll start over again..
D|--------------------------------------------|
A|--------------------------------------------|
F|---------------7---6--10-----------7-6------|
C|---0--00000000-x---x--x---00000000-x-x------| 
G|---0--00000000-5---4--8---00000000-5-4------|
C|---0--00000000------------00000000----------|
pm      ********            ********


A million miles from home
D|--------------------------------------------------------|
A|--------------------------------------------------------|
F|---------------7---6--10-----------7--------------------|
C|---0--00000000-x---x--x---00000000-x--0-0-0-0-0---------| 
G|---0--00000000-5---4--8---00000000-5--0-0-0-0-0---------|
C|---0--00000000------------00000000----0-0-0-0-0---------|
pm      ********            ********    * * * * 


There ya go! 
Comment and Rate!
Добавлено: 26.05.2012
Другие материалы по этой песне:
  • Аккорды и текст

Страница создана 02.03.2012
http://primanota.ru/drop-dead-gorgeous/fame-chords.htm
Привет, Гость.
Предлагаем пройти революционный курс по гитаре.
Подарок от PrimaNota.Ru, забирай!