PrimaNota.ru - самый крупный в мире бесплатный архив песенных текстов, аккордов, табулатур и нот


Drop Dead Gorgeous - Er - текст песни, таба, видео

Регистрация Запомнить меня
Войти через:  Facebook Google Twitter Vk Yandex Mail.ru

Drop Dead Gorgeous - Er - текст песни, таба, видео

Печатать
Просмотров: 211
Уроки эстрадного вокала в Санкт-Петербурге
----------------------------------------------------------------------------
                         Drop Dead, Gorgeous - E.R.
----------------------------------------------------------------------------

Tabbed by: Tim Y. (bleedingx3)
email : hex_x3@yahoo.com
AIM : TimofBodomxx

Tuning : Drop C ( C G C F A D )

Legend :
p = pull off
. = palm mute
^ = bend


"You won't have to wait in line..."
|------------------------------------------|
|------------------------------------------|
|------14---14-14--14-14-14-14-14-14-14-14-|
|------0----0--0---0--0--0--0--0--0--0--0--| [2x]
|------12---12-12--12-12-12-12-12-12-12-12-|
|--000-------------------------------------|
   ...

|------------------------------------------|
|------------------------------------------|
|------15---15-15--15-15-15-15-15-15-15-15-|
|------0----0--0---0--0--0--0--0--0--0--0--| 
|------13---13-13--13-13-13-13-13-13-13-13-|
|--000-------------------------------------|
   ...

|------------------------------------------|
|------------------------------------------|
|------17---17-17--17-17-17-17-17-17-17-17-|
|------0----0--0---0--0--0--0--0--0--0--0--|  [After this, repeat all three 
|------15---15-15--15-15-15-15-15-15-15-15-|   measures again]
|--000-------------------------------------|
   ...

|----------------------15^-|
|--------------------------|
|--------------------------|  [Guitar 1]
|--------------------------|
|--------------------------|
|-----0000--0000-----------|
|     ....  ....
|
|----------------------15^-|
|--------------------------|
|--------------------------|  [Guitar 2]
|--------------------------|
|--------------------------|
|-0000-----------0000------|
  ....           ....

"Ankle films are back on cupid ..."
|---------------------------------|
|-------------7p0-5p0-------------|
|-----7p0-5p0---------7p0-5p0-7/8-|
|---------------------------------| [2x]
|-0-0-----------------------------|
|-0-0-----------------------------|
  . .

|---------------------------------------------------------------------|
|-------------------------7p0-5p0-----------------7p0-5p0-3p0-2/3\2p0-|
|-----7p0-5p0-----7p0-5p0-------------7p0-5p0-------------------------|
|---------------------------------------------------------------------|
|-0-0---------0-0-----------------0-0---------0-0---------------------|
|-0-0---------0-0-----------------0-0---------0-0---------------------|
  . .         . .                 . .         . .

[Wow, repeat these 2 bars from the duration = 0:22 - 0:51]



"Charge the paddles to 15 .. "
|---------------------------------|
|---------------------------------|
|---------------------------------|  [Guitar 2]
|---------------------------------|
|---------------------------------|
|-0-0-0-0--0--000-0-0--0-0-0-0--0-|
  . . . .  .  ... . .  . . . .  .

"clear .."
|---------------------------------|
|---------------------------------|
|---------------------------------|  [Guitar 1]
|---------------------------------|
|---------------------------------|
|-0-0-0-0--0--000-0-0--0-0-0-0--0-|
  . . . .  .  ... . .  . . . .  .

|-------------------------------------------------------------------------|
|-------------------------------------------------------------------12-12-|
|-------------------------------------------------------------------15-15-|  
|-------------------------------------------------------------------------|
|-------------------------------------------------------------------------|
|-0-0-0-0--0--000-0-0--0-0-0-0--0---0-0-0-0--0--000-0-0--0-0-0-0--0-------|
  . . . .  .  ... . .  . . . .  .   . . . .  .  ... . .  . . . .  .

[Play riff above 2x]


"We need a bandage to stop the bleeding ..."
|-------------------------------|
|-------------------------------|
|-----14----14--14------14--14--|
|-----0-----0---0-------0---0---| [Play this until the guitar fades ... or
|-0-0-12--0-12--12--0-0-12--12--|  more specifically = 1:23 - 1:45]
|-0-0-----0---------0-0---------|

[Then the piano ending]
Добавлено: 01.05.2012
Другие материалы по этой песне:

Страница создана 01.05.2012
http://primanota.ru/drop-dead-gorgeous/er-chords.htm
Привет, Гость.
Предлагаем пройти революционный курс по гитаре.
Подарок от PrimaNota.Ru, забирай!