PrimaNota.ru - самый крупный в мире бесплатный архив песенных текстов, аккордов, табулатур и нот


Drop Dead Gorgeous - Dressed For Friend Requests - текст песни, таба, бас-таба, видео

Регистрация Запомнить меня
Войти через:  Facebook Google Twitter Vk Yandex Mail.ru

Drop Dead Gorgeous - Dressed For Friend Requests - текст песни, таба, бас-таба, видео

Печатать
Просмотров: 182
-------------------------------------------------------------------------------
                             Dressed For Friend Requests - Drop Dead, Gorgeous
-------------------------------------------------------------------------------
Tabbed by:DropDead1
Email:daniel_wherestheboat00@yahoo.com

Tuning:Drop C

00:19-00:36
D|-----------------------------------------------------------------------|
A|-11---11-11---11--------------------------------------11---11-11-11-11-|
F|-14---14-14---14--------------------------------------14---14-14-14-14-|
C|-----------------------------------------------------------------------|
G|----0-------0----0--0-0-0-0-0--0-0-0-0--0--0-0-0-0-0-----0-------------|
C|----0-------0----0--0-0-0-0-0--0-0-0-0--0--0-0-0-0-0-----0-------------|
      *       *    *  * * * * *  * * * *  *  * * * * *     *
D|-------------------------------------------------|
A|-------------------------------------------------|
F|-------------------------------------------------|
C|-------------------------------------------------|
G|-0--0-0-0-0-0-----0--0-0-0-0-0-----0--0-0-0-0-0--|
C|-0--0-0-0-0-0-----0--0-0-0-0-0-----0--0-0-0-0-0--|
   *  * * * * *     *  * * * * *     *  * * * * *
D|-------------------------------------------------|
A|---------------11---11-11-11-11------------------|
F|---------------14---14-14-14-14------------------|
C|-------------------------------------------------|
G|-0--0-0-0-0-0-----0------------------------------|
C|-0--0-0-0-0-0-----0------------------------------|
   *  * * * * *     *

00:37-01:08
D|-------------------------------------------------|
A|-------------------------------------------------|
F|----------10-10-9-10-12----------10-10-9-10-9----|
C|-------------------------------------------------|
G|-0--0-0-0-8--8--7-8--10-0--0-0-0-8--8--7-8--7----|
C|-0--0-0-0---------------0--0-0-0-----------------|
      * * *                  * * *
D|-------------------------------------------------|
A|-------------------------------------------------|
F|----------10-10-9-10-12----------10-10-9-10-14---|
C|-------------------------------------------------|(2Xs)
G|-0--0-0-0-8--8--7-8--10-0--0-0-0-8--8--7-8--12---|
C|-0--0-0-0---------------0--0-0-0-----------------|
      * * *                  * * *
D|--------------------------------------------|
A|--------11----------11----------11----------|
F|--------14----------14----------14----------|
C|--------------------------------------------|
G|-0-0--0------0-0--0------0-0--0------0------|
C|-0-0--0------0-0--0------0-0--0------0------|
   * *         * *         * *         *

01:08-01:28
D|--------------------------------------------|
A|--------------------------------------------|
F|--------------------------------------------|
C|--------------------------------------------|
G|-0-0-0-0--0-0-0-0--0-0-0-0--0-0-0-----------|
C|-0-0-0-0--0-0-0-0--0-0-0-0--0-0-0-----------|
   * * * *  * * * *  * * * *  * * *
D|--------------------------------------------|
A|--------------------------------------------|
F|--------------------------------------------|
C|--------------------------------------------|(2Xs)
G|-0-0-0-0--0-0-0-0--0-0-0--------------------|
C|-0-0-0-0--0-0-0-0--0-0-0--------------------|
   * * * *  * * * *  * * *
D|---------------------------------------------------------|
A|---------------------------------------------------------|
F|---------------------------------------------------------|
C|---------------------------------------------------------|
G|-0-0-0-0--0-0-0-0--0-0-0-0--0-0-0-0--0-0-0-0--0-0-0------|
C|-0-0-0-0--0-0-0-0--0-0-0-0--0-0-0-0--0-0-0-0--0-0-0------|
   * * * *  * * * *  * * * *  * * * *  * * * *  * * *
D|---------------------------------------------------------|
A|---------------------------------------------------------|
F|---------------------------------------------------------|
C|---------------------------------(2Xs--------------------|
G|-0-0-0-0--0-0-0-0--0-0-0---------------0-0-0-0--0-0-0-0--|
C|-0-0-0-0--0-0-0-0--0-0-0---------------0-0-0-0--0-0-0-0--|
   * * * *  * * * *  * * *               * * * *  * * * *

01:34-02:09
D|---------------------------------------------------------|
A|---------------------------------------------------------|
F|-15------14------15------14------10------12--------------|
C|---(16Xs)--(16Xs)--(16Xs)--(16Xs)--(16Xs)--(16Xs)--------|
G|-13------12------13------12------8-------10--------------|
C|---------------------------------------------------------|

D|---------------------------------------------------------|
A|---------------------------------------------------------|
F|-15------14------10------12------------------------------|
C|---(16Xs)--(16Xs)--(16Xs)--(16Xs)------------------------|(2Xs)
G|-13------12------8-------10------------------------------|
C|---------------------------------------------------------|

02:10-02:21
D|---------------------------------------------------------|
A|---------------------------------------------------------|
F|---------------------------------------------------------|
C|---------------------------------------------------------|
G|-0--0-0-0-0----------------------------------------------|
C|-0--0-0-0-0--15p14p13p0-15p14p13p0-15p14p13p0-15p14p13p0-|
      * * * *
D|---------------------------------------------------------|
A|---------------------------------------------------------|
F|---------------------------------------------------------|
C|---------------------------------------------------------|
G|-0--0-0-0-0----------------------------------------------|
C|-0--0-0-0-0--15p14p13p0-15p14p13p0-13p12p11p0-13p12p11p0-|
      * * * *
D|---------------------------------------------------------|
A|---------------------------------------------------------|
F|---------------------------------------------------------|
C|---------------------------------------------------------|
G|-0--0-0-0-0----------------------------------------------|
C|-0--0-0-0-0--15p14p13p0-15p14p13p0-15p14p13p0-15p14p13p0-|
      * * * *
D|---------------------------------------------------------|
A|---------------------------------------------------------|
F|---------------------------------------------------------|
C|---------------------------------------------------------|
G|-0--0-0-0-0----------------------------------------------|
C|-0--0-0-0-0--15p14p13p0-15p14p13p0-17p16p15p0-17p16p15p0-|
      * * * *

02:21-02:32
Guitar 1
D|---------------------------------------------------------|
A|---------------------------------------------------------|
F|---------------------------------------------------------|
C|---------------------------------------------------------|
G|-0--0-0-0-0----------------------------------------------|
C|-0--0-0-0-0--19p18p17p0-19p18p17p0-19p18p17p0-19p18p17p0-|
      * * * *
D|---------------------------------------------------------|
A|---------------------------------------------------------|
F|---------------------------------------------------------|
C|---------------------------------------------------------|
G|-0--0-0-0-0----------------------------------------------|
C|-0--0-0-0-0--19p18p17p0-1918p17p0-17p16p15p0-17p16p15p0--|
      * * * *

D|---------------------------------------------------------|
A|---------------------------------------------------------|
F|---------------------------------------------------------|
C|---------------------------------------------------------|
G|-0--0-0-0-0----------------------------------------------|
C|-0--0-0-0-0--19p18p17p0-19p18p17p0-19p18p17p0-19p18p17p0-|
      * * * *
D|---------------------------------------------------------|
A|---------------------------------------------------------|
F|---------------------------------------------------------|
C|---------------------------------------------------------|
G|-0--0-0-0-0----------------------------------------------|
C|-0--0-0-0-0--19p18p17p0-19p18p17p0-20p19p18p0-20p19p18p0-|

02:21-02:32
Guitar 2
D|---------------------------------------------------------|
A|---------------------------------------------------------|
F|---------------------------------------------------------|
C|---------------------------------------------------------|(32Xs)
G|---------------------------------------------------------|
C|--15p14p13p0-15p14p13p0-15p14p13p0-15p14p13p0------------|

02:33
D|--------------------------------------------|
A|--------------------------------------------|
F|--------------------------------------------|
C|--------------------------------------------|
G|-0--0-0-0-0---------------------------------|
C|-0--0-0-0-0---------------------------------|
      * * * *
Добавлено: 23.03.2012
Другие материалы по этой песне:

Страница создана 23.03.2012
http://primanota.ru/drop-dead-gorgeous/dressed-for-friend-requests-chords.htm
Привет, Гость.
Предлагаем пройти революционный курс по гитаре.
Подарок от PrimaNota.Ru, забирай!