PrimaNota.ru - самый крупный в мире бесплатный архив песенных текстов, аккордов, табулатур и нот


Drop Dead Gorgeous - Dressed For Friend Request - таба, видео

Регистрация Запомнить меня
Войти через:  Facebook Google Twitter Vk Yandex Mail.ru

Drop Dead Gorgeous - Dressed For Friend Request - таба, видео

Печатать
Просмотров: 229
I have tabbed out both guitar parts out consecutively in one tab. The Rythm guitar comes 
and then the lead guitar immidietely follows it.

Left Guitar - Dropped C Tuning

0:00 (insert Piano Intro Here)


0:20
        PM               PM            PM PM PM PM PM PM PM
   |-----3----|     |-----3----|
   Q    Q     Q     Q    Q     Q       E  E  S  S  S  S  E  Q.
------------------------------------|------------------------------|
--11---------11----11---------11----|------------------------------|
--14---------14----14---------14----|------------------------------|
------------------------------------|------------------------------|
--------0----------------0----------|--0--0--0--0--0--0--0---------|
--------0----------------0----------|--0--0--0--0--0--0--0---------|


  PM   PM   PM   PM           PM PM PM PM PM PM PM
  |----3----|
  Q    Q    Q    Q    Q       E  E  S  S  S  S  E  Q.
---------------------------|------------------------------|
---------------------------|------------------------------|
---------------------------|------------------------------|
---------------------------|------------------------------|
--0----0----0----0---------|--0--0--0--0--0--0--0---------|
--0----0----0----0---------|--0--0--0--0--0--0--0---------|


        PM                                PM PM PM PM PM PM PM
   |-----3----|     |------3-----|
   Q    Q     Q     Q     Q      Q        E  E  S  S  S  S  E  Q.
---------------------------------------|------------------------------|
--11---------11----11-----L------L-----|------------------------------|
--14---------14----14-----Lb-----Lb----|------------------------------|
---------------------------------------|------------------------------|
--------0------------------------------|--0--0--0--0--0--0--0---------|
--------0------------------------------|--0--0--0--0--0--0--0---------|


                      PM PM PM PM PM PM PM
  W                   E  E  S  S  S  S  E  Q.        W
-------------------|------------------------------|-------------------|
-------------------|------------------------------|-------------------|
-------------------|------------------------------|-------------------|
-------------------|------------------------------|-------------------|
-------------------|--0--0--0--0--0--0--0---------|-------------------|
-------------------|--0--0--0--0--0--0--0---------|-------------------|


  PM PM PM PM PM PM PM
  E  E  S  S  S  S  E  Q.        W
------------------------------|-------------------|
------------------------------|-------------------|
------------------------------|-------------------|
------------------------------|-------------------|
--0--0--0--0--0--0--0---------|-------------------|
--0--0--0--0--0--0--0---------|-------------------|


  PM PM PM PM PM PM PM                 PM
                                  |-----3----|     |------3-----|
  E  E  S  S  S  S  E  Q.         Q    Q     Q     Q     Q      Q
------------------------------|---------------------------------------|
------------------------------|--11---------11----11-----L------L-----|
------------------------------|--14---------14----14-----Lb-----Lb----|
------------------------------|---------------------------------------|
--0--0--0--0--0--0--0---------|--------0------------------------------|
--0--0--0--0--0--0--0---------|--------0------------------------------|


  PM PM PM PM PM       PM           PM
  E  E  S  S  E   Q    E   E     E  E   Q    E    E  E    E
------------------------------|------------------------------|
------------------------------|------------------------------|
-----------------10-------10--|--L-----10----9s--10--9s--10--|
------------------------------|------------------------------|
--0--0--0--0--0---8----0---8--|--L--0---8----7s---8--7s---8--|
--0--0--0--0--0--------0------|-----0------------------------|


  PM PM PM PM PM       PM           PM
  E  E  S  S  E   Q    E   E     E  E   Q    E    E  E    E
------------------------------|------------------------------|
------------------------------|------------------------------|
-----------------10-------10--|--L-----10----9s--10--9s--10--|
------------------------------|------------------------------|
--0--0--0--0--0---8----0---8--|--L--0---8----7s---8--7s---8--|
--0--0--0--0--0--------0------|-----0------------------------|


  PM PM PM PM PM       PM           PM
  E  E  S  S  E   Q    E   E     E  E   Q    E    E  E    E
------------------------------|------------------------------|
------------------------------|------------------------------|
-----------------10-------10--|--L-----10----9s--10--9s--10--|
------------------------------|------------------------------|
--0--0--0--0--0---8----0---8--|--L--0---8----7s---8--7s---8--|
--0--0--0--0--0--------0------|-----0------------------------|


  PM PM PM PM PM       PM           PM
  E  E  S  S  E   Q    E   E     E  E   Q    E    E   Q
------------------------------|----------------------------|
------------------------------|----------------------------|
-----------------10-------10--|--L-----10----9s--10--12----|
------------------------------|----------------------------|
--0--0--0--0--0---8----0---8--|--L--0---8----7s---8--10----|
--0--0--0--0--0--------0------|-----0----------------------|


  PM PM PM PM PM       PM           PM
  E  E  S  S  E   Q    E   E     E  E   Q    E    E  E    E
------------------------------|------------------------------|
------------------------------|------------------------------|
-----------------10-------10--|--L-----10----9s--10--9s--10--|
------------------------------|------------------------------|
--0--0--0--0--0---8----0---8--|--L--0---8----7s---8--7s---8--|
--0--0--0--0--0--------0------|-----0------------------------|


  PM PM PM PM PM       PM           PM
  E  E  S  S  E   Q    E   E     E  E   Q    E    E  E    E
------------------------------|------------------------------|
------------------------------|------------------------------|
-----------------10-------10--|--L-----10----9s--10--9s--10--|
------------------------------|------------------------------|
--0--0--0--0--0---8----0---8--|--L--0---8----7s---8--7s---8--|
--0--0--0--0--0--------0------|-----0------------------------|


  PM PM PM PM PM       PM           PM
  E  E  S  S  E   Q    E   E     E  E   Q    E    E  E    E
------------------------------|------------------------------|
------------------------------|------------------------------|
-----------------10-------10--|--L-----10----9s--10--9s--10--|
------------------------------|------------------------------|
--0--0--0--0--0---8----0---8--|--L--0---8----7s---8--7s---8--|
--0--0--0--0--0--------0------|-----0------------------------|


  PM PM PM PM PM       PM           PM
  E  E  S  S  E   Q    E   E     E  E   Q    E    E   Q
------------------------------|----------------------------|
------------------------------|----------------------------|
-----------------10-------10--|--L-----10----9s--10--12----|
------------------------------|----------------------------|
--0--0--0--0--0---8----0---8--|--L--0---8----7s---8--10----|
--0--0--0--0--0--------0------|-----0----------------------|


  PM PM PM                                     PM PM PM
  S  S  E  H.              W                   S  S  E  H.
------------------------|-------------------|------------------------|
------------------------|-------------------|------------------------|
------------------------|-------------------|------------------------|
-----------0------------|--L----------------|-----------0------------|
--0--0--0--0------------|--L----------------|--0--0--0--0------------|
--0--0--0--0------------|--L----------------|--0--0--0--0------------|


                      PM PM PM
  W                   S  S  E  H.              W
-------------------|------------------------|-------------------|
-------------------|------------------------|-------------------|
-------------------|------------------------|-------------------|
--L----------------|-----------0------------|--L----------------|
--L----------------|--0--0--0--0------------|--L----------------|
--L----------------|--0--0--0--0------------|--L----------------|


                                          PM PM PM PM PM
  W                   W                   S  S  S  S  E  E  H
-------------------|-------------------|-----------------------------|
-------------------|-------------------|-----------------------------|
-------------------|-------------------|-----------------------------|
-------------------|-------------------|-----------------------------|
-------------------|-------------------|--0--0--0--0--0--------------|
-------------------|-------------------|--0--0--0--0--0--------------|


  PM PM PM PM PM    PM PM PM PM PM       PM  PM  PM
  S  S  S  S  E  E  S  S  S  S  E  E     E.  E.  E  H
--------------------------------------|----------------------|
--------------------------------------|----------------------|
--------------------------------------|----------------------|
--------------------------------------|----------------------|
--0--0--0--0--0-----0--0--0--0--0-----|--0---0---0-----------|
--0--0--0--0--0-----0--0--0--0--0-----|--0---0---0-----------|


  PM PM PM PM PM    PM PM PM PM PM       PM  PM  PM
  S  S  S  S  E  E  S  S  S  S  E  E     E.  E.  E  H
--------------------------------------|----------------------|
--------------------------------------|----------------------|
--------------------------------------|----------------------|
--------------------------------------|----------------------|
--0--0--0--0--0-----0--0--0--0--0-----|--0---0---0-----------|
--0--0--0--0--0-----0--0--0--0--0-----|--0---0---0-----------|


  PM PM PM PM PM    PM PM PM PM PM       PM  PM  PM
  S  S  S  S  E  E  S  S  S  S  E  E     E.  E.  E  H
--------------------------------------|----------------------|
--------------------------------------|----------------------|
--------------------------------------|----------------------|
--------------------------------------|----------------------|
--0--0--0--0--0-----0--0--0--0--0-----|--0---0---0-----------|
--0--0--0--0--0-----0--0--0--0--0-----|--0---0---0-----------|


  PM PM PM PM PM    PM PM PM PM PM       PM PM PM PM PM
  S  S  S  S  E  E  S  S  S  S  E  E     S  S  S  S  E  E  H
--------------------------------------|-----------------------------|
--------------------------------------|-----------------------------|
--------------------------------------|-----------------------------|
--------------------------------------|-----------------------------|
--0--0--0--0--0-----0--0--0--0--0-----|--0--0--0--0--0--------------|
--0--0--0--0--0-----0--0--0--0--0-----|--0--0--0--0--0--------------|


  PM PM PM PM PM    PM PM PM PM PM       PM  PM  PM
  S  S  S  S  E  E  S  S  S  S  E  E     E.  E.  E  H
--------------------------------------|----------------------|
--------------------------------------|----------------------|
--------------------------------------|----------------------|
--------------------------------------|----------------------|
--0--0--0--0--0-----0--0--0--0--0-----|--0---0---0-----------|
--0--0--0--0--0-----0--0--0--0--0-----|--0---0---0-----------|


  PM PM PM PM PM    PM PM PM PM PM       PM  PM  PM
  S  S  S  S  E  E  S  S  S  S  E  E     E.  E.  E  H
--------------------------------------|----------------------|
--------------------------------------|----------------------|
--------------------------------------|----------------------|
--------------------------------------|----------------------|
--0--0--0--0--0-----0--0--0--0--0-----|--0---0---0-----------|
--0--0--0--0--0-----0--0--0--0--0-----|--0---0---0-----------|


  PM PM PM PM PM    PM PM PM PM PM       PM  PM  PM
  S  S  S  S  E  E  S  S  S  S  E  E     E.  E.  E  H
--------------------------------------|----------------------|
--------------------------------------|----------------------|
--------------------------------------|----------------------|
--------------------------------------|----------------------|
--0--0--0--0--0-----0--0--0--0--0-----|--0---0---0-----------|
--0--0--0--0--0-----0--0--0--0--0-----|--0---0---0-----------|


  PM PM PM PM PM    PM PM PM PM PM
  S  S  S  S  E  E  S  S  S  S  E  E     W                   W
--------------------------------------|-------------------|-------------------|
--------------------------------------|-------------------|-------------------|
--------------------------------------|-------------------|-------------------|
--------------------------------------|-------------------|-------------------|
--0--0--0--0--0-----0--0--0--0--0-----|-------------------|-------------------|
--0--0--0--0--0-----0--0--0--0--0-----|-------------------|-------------------|


  W                   W                    E   E   E   E   E   E   E   E
-------------------|-------------------|----------------------------------|
-------------------|-------------------|----------------------------------|
-------------------|-------------------|--10--10--10--10--10--10--10--10--|
-------------------|-------------------|----------------------------------|
-------------------|-------------------|---8---8---8---8---8---8---8---8--|
-------------------|-------------------|----------------------------------|


   E   E   E   E   E   E   E   E      E   E   E   E   E   E   E   E
----------------------------------|----------------------------------|
----------------------------------|----------------------------------|
--10--10--10--10--10--10--10--10--|--14--14--14--14--14--14--14--14--|
----------------------------------|----------------------------------|
---8---8---8---8---8---8---8---8--|--12--12--12--12--12--12--12--12--|
----------------------------------|----------------------------------|


   E   E   E   E   E   E   E   E     E  E  E  E  E  E  E  E
----------------------------------|--------------------------|
----------------------------------|--------------------------|
--14--14--14--14--14--14--14--14--|--------------------------|
----------------------------------|--------------------------|
--12--12--12--12--12--12--12--12--|--5--5--5--5--5--5--5--5--|
----------------------------------|--5--5--5--5--5--5--5--5--|


  E  E  E  E  E  E  E  E     E  E  E  E  E  E  E  E
--------------------------|--------------------------|
--------------------------|--------------------------|
--------------------------|--------------------------|
--------------------------|--------------------------|
--5--5--5--5--5--5--5--5--|--0--0--0--0--0--0--0--0--|
--5--5--5--5--5--5--5--5--|--0--0--0--0--0--0--0--0--|


  E  E  E  E  E  E  E  E      E   E   E   E   E   E   E   E
--------------------------|----------------------------------|
--------------------------|----------------------------------|
--------------------------|--10--10--10--10--10--10--10--10--|
--------------------------|----------------------------------|
--0--0--0--0--0--0--0--0--|---8---8---8---8---8---8---8---8--|
--0--0--0--0--0--0--0--0--|----------------------------------|


   E   E   E   E   E   E   E   E      E   E   E   E   E   E   E   E
----------------------------------|----------------------------------|
----------------------------------|----------------------------------|
--10--10--10--10--10--10--10--10--|--14--14--14--14--14--14--14--14--|
----------------------------------|----------------------------------|
---8---8---8---8---8---8---8---8--|--12--12--12--12--12--12--12--12--|
----------------------------------|----------------------------------|


   E   E   E   E   E   E   E   E     E  E  E  E  E  E  E  E
----------------------------------|--------------------------|
----------------------------------|--------------------------|
--14--14--14--14--14--14--14--14--|--------------------------|
----------------------------------|--------------------------|
--12--12--12--12--12--12--12--12--|--5--5--5--5--5--5--5--5--|
----------------------------------|--5--5--5--5--5--5--5--5--|


  E  E  E  E  E  E  E  E     E  E  E  E  E  E  E  E
--------------------------|--------------------------|
--------------------------|--------------------------|
--------------------------|--------------------------|
--------------------------|--------------------------|
--5--5--5--5--5--5--5--5--|--0--0--0--0--0--0--0--0--|
--5--5--5--5--5--5--5--5--|--0--0--0--0--0--0--0--0--|


  E  E  E  E  E  E  E  E      E   E   E   E   E   E   E   E
--------------------------|----------------------------------|
--------------------------|----------------------------------|
--------------------------|--10--10--10--10--10--10--10--10--|
--------------------------|----------------------------------|
--0--0--0--0--0--0--0--0--|---8---8---8---8---8---8---8---8--|
--0--0--0--0--0--0--0--0--|----------------------------------|


   E   E   E   E   E   E   E   E      E   E   E   E   E   E   E   E
----------------------------------|----------------------------------|
----------------------------------|----------------------------------|
--10--10--10--10--10--10--10--10--|--14--14--14--14--14--14--14--14--|
----------------------------------|----------------------------------|
---8---8---8---8---8---8---8---8--|--12--12--12--12--12--12--12--12--|
----------------------------------|----------------------------------|


   E   E   E   E   E   E   E   E     E  E  E  E  E  E  E  E
----------------------------------|--------------------------|
----------------------------------|--------------------------|
--14--14--14--14--14--14--14--14--|--------------------------|
----------------------------------|--------------------------|
--12--12--12--12--12--12--12--12--|--5--5--5--5--5--5--5--5--|
----------------------------------|--5--5--5--5--5--5--5--5--|


  E  E  E  E  E  E  E  E     E  E  E  E  E  E  E  E
--------------------------|--------------------------|
--------------------------|--------------------------|
--------------------------|--------------------------|
--------------------------|--------------------------|
--5--5--5--5--5--5--5--5--|--0--0--0--0--0--0--0--0--|
--5--5--5--5--5--5--5--5--|--0--0--0--0--0--0--0--0--|


  E  E  E  E  E  E  E  E      E   E   E   E   E   E   E   E
--------------------------|----------------------------------|
--------------------------|----------------------------------|
--------------------------|--10--10--10--10--10--10--10--10--|
--------------------------|----------------------------------|
--0--0--0--0--0--0--0--0--|---8---8---8---8---8---8---8---8--|
--0--0--0--0--0--0--0--0--|----------------------------------|


   E   E   E   E   E   E   E   E      E   E   E   E   E   E   E   E
----------------------------------|----------------------------------|
----------------------------------|----------------------------------|
--10--10--10--10--10--10--10--10--|--14--14--14--14--14--14--14--14--|
----------------------------------|----------------------------------|
---8---8---8---8---8---8---8---8--|--12--12--12--12--12--12--12--12--|
----------------------------------|----------------------------------|


                                              PM PM PM
   E   E   E   E   E   E   E   E     H        S  S  E  Q
----------------------------------|-------------------------|
----------------------------------|-------------------------|
--14--14--14--14--14--14--14--14--|-------------------------|
----------------------------------|-------------------------|
--12--12--12--12--12--12--12--12--|--0--------0--0--0-------|
----------------------------------|--0--------0--0--0-------|


                                                      PM PM PM
  |---3--|  |---3--|  |---3--|  |---3--|
  E   E  E  E   E  E  E   E  E  E   E  E     H        S  S  E  Q
------------------------------------------|-------------------------|
------------------------------------------|-------------------------|
------------------------------------------|-------------------------|
------------------------------------------|-------------------------|
--8p--7--0--8p--7--0--8p--7--0--8p--7--0--|--0--------0--0--0-------|
------------------------------------------|--0--------0--0--0-------|


                                                      PM PM PM
  |---3--|  |---3--|  |---3--|  |---3--|
  E   E  E  E   E  E  E   E  E  E   E  E     H        S  S  E  Q
------------------------------------------|-------------------------|
------------------------------------------|-------------------------|
------------------------------------------|-------------------------|
------------------------------------------|-------------------------|
--8p--7--0--8p--7--0--7p--5--0--7p--5--0--|--0--------0--0--0-------|
------------------------------------------|--0--------0--0--0-------|


                                                      PM PM PM
  |---3--|  |---3--|  |---3--|  |---3--|
  E   E  E  E   E  E  E   E  E  E   E  E     H        S  S  E  Q
------------------------------------------|-------------------------|
------------------------------------------|-------------------------|
------------------------------------------|-------------------------|
------------------------------------------|-------------------------|
--8p--7--0--8p--7--0--8p--7--0--8p--7--0--|--0--------0--0--0-------|
------------------------------------------|--0--------0--0--0-------|


                                                        PM PM PM
  |---3--|  |---3--|   |---3--|   |---3--|
  E   E  E  E   E  E   E   E  E   E   E  E     H        S  S  E  Q
--------------------------------------------|-------------------------|
--------------------------------------------|-------------------------|
--------------------------------------------|-------------------------|
--------------------------------------------|-------------------------|
--8p--7--0--8p--7--0--10p--8--0--10p--8--0--|--0--------0--0--0-------|
--------------------------------------------|--0--------0--0--0-------|


                                                      PM PM PM
  |---3--|  |---3--|  |---3--|  |---3--|
  E   E  E  E   E  E  E   E  E  E   E  E     H        S  S  E  Q
------------------------------------------|-------------------------|
------------------------------------------|-------------------------|
------------------------------------------|-------------------------|
------------------------------------------|-------------------------|
--8p--7--0--8p--7--0--8p--7--0--8p--7--0--|--0--------0--0--0-------|
------------------------------------------|--0--------0--0--0-------|


                                                      PM PM PM
  |---3--|  |---3--|  |---3--|  |---3--|
  E   E  E  E   E  E  E   E  E  E   E  E     H        S  S  E  Q
------------------------------------------|-------------------------|
------------------------------------------|-------------------------|
------------------------------------------|-------------------------|
------------------------------------------|-------------------------|
--8p--7--0--8p--7--0--7p--5--0--7p--5--0--|--0--------0--0--0-------|
------------------------------------------|--0--------0--0--0-------|


                                                      PM PM PM
  |---3--|  |---3--|  |---3--|  |---3--|
  E   E  E  E   E  E  E   E  E  E   E  E     H        S  S  E  Q
------------------------------------------|-------------------------|
------------------------------------------|-------------------------|
------------------------------------------|-------------------------|
------------------------------------------|-------------------------|
--8p--7--0--8p--7--0--8p--7--0--8p--7--0--|--0--------0--0--0-------|
------------------------------------------|--0--------0--0--0-------|


                                                        PM PM PM
  |---3--|  |---3--|   |---3--|   |---3--|
  E   E  E  E   E  E   E   E  E   E   E  E     H        S  S  E  Q
--------------------------------------------|-------------------------||
--------------------------------------------|-------------------------||
--------------------------------------------|-------------------------||
--------------------------------------------|-------------------------||
--8p--7--0--8p--7--0--10p--8--0--10p--8--0--|--0--------0--0--0-------||
--------------------------------------------|--0--------0--0--0-------||

Right Guitar - Dropped C Tuning

0:00 (insert Piano Intro Here)


0:20
        PM               PM            PM PM PM PM PM PM PM
   |-----3----|     |-----3----|
   Q    Q     Q     Q    Q     Q       E  E  S  S  S  S  E  Q.
------------------------------------|------------------------------|
--11---------11----11---------11----|------------------------------|
--14---------14----14---------14----|------------------------------|
------------------------------------|------------------------------|
--------0----------------0----------|--0--0--0--0--0--0--0---------|
--------0----------------0----------|--0--0--0--0--0--0--0---------|


  PM   PM   PM   PM           PM PM PM PM PM PM PM
  |----3----|
  Q    Q    Q    Q    Q       E  E  S  S  S  S  E  Q.
---------------------------|------------------------------|
---------------------------|------------------------------|
---------------------------|------------------------------|
---------------------------|------------------------------|
--0----0----0----0---------|--0--0--0--0--0--0--0---------|
--0----0----0----0---------|--0--0--0--0--0--0--0---------|


        PM                                PM PM PM PM PM PM PM
   |-----3----|     |------3-----|
   Q    Q     Q     Q     Q      Q        E  E  S  S  S  S  E  Q.
---------------------------------------|------------------------------|
--11---------11----11-----L------L-----|------------------------------|
--14---------14----14-----Lb-----Lb----|------------------------------|
---------------------------------------|------------------------------|
--------0------------------------------|--0--0--0--0--0--0--0---------|
--------0------------------------------|--0--0--0--0--0--0--0---------|


                      PM PM PM PM PM PM PM
  W                   E  E  S  S  S  S  E  Q.        W
-------------------|------------------------------|-------------------|
-------------------|------------------------------|-------------------|
-------------------|------------------------------|-------------------|
-------------------|------------------------------|-------------------|
-------------------|--0--0--0--0--0--0--0---------|-------------------|
-------------------|--0--0--0--0--0--0--0---------|-------------------|


  PM PM PM PM PM PM PM
  E  E  S  S  S  S  E  Q.        W
------------------------------|-------------------|
------------------------------|-------------------|
------------------------------|-------------------|
------------------------------|-------------------|
--0--0--0--0--0--0--0---------|-------------------|
--0--0--0--0--0--0--0---------|-------------------|


  PM PM PM PM PM PM PM                 PM
                                  |-----3----|     |------3-----|
  E  E  S  S  S  S  E  Q.         Q    Q     Q     Q     Q      Q
------------------------------|---------------------------------------|
------------------------------|--11---------11----11-----L------L-----|
------------------------------|--14---------14----14-----Lb-----Lb----|
------------------------------|---------------------------------------|
--0--0--0--0--0--0--0---------|--------0------------------------------|
--0--0--0--0--0--0--0---------|--------0------------------------------|


  PM PM PM PM PM       PM           PM
  E  E  S  S  E   Q    E   E     E  E   Q     E    E   E    E
------------------------------|--------------------------------|
------------------------------|--------------------------------|
-----------------14-------14--|--L-----14----12s--14--12s--14--|
------------------------------|--------------------------------|
--0--0--0--0--0--12----0--12--|--L--0--12----10s--12--10s--12--|
--0--0--0--0--0--------0------|-----0--------------------------|


  PM PM PM PM PM       PM           PM
  E  E  S  S  E   Q    E   E     E  E   Q     E    E   E    E
------------------------------|--------------------------------|
------------------------------|--------------------------------|
-----------------14-------14--|--L-----14----12s--14--12s--14--|
------------------------------|--------------------------------|
--0--0--0--0--0--12----0--12--|--L--0--12----10s--12--10s--12--|
--0--0--0--0--0--------0------|-----0--------------------------|


  PM PM PM PM PM       PM           PM
  E  E  S  S  E   Q    E   E     E  E   Q     E    E   E    E
------------------------------|--------------------------------|
------------------------------|--------------------------------|
-----------------14-------14--|--L-----14----12s--14--12s--14--|
------------------------------|--------------------------------|
--0--0--0--0--0--12----0--12--|--L--0--12----10s--12--10s--12--|
--0--0--0--0--0--------0------|-----0--------------------------|


  PM PM PM PM PM       PM           PM
  E  E  S  S  E   Q    E   E     E  E   Q     E    E   Q
------------------------------|-----------------------------|
------------------------------|-----------------------------|
-----------------14-------14--|--L-----14----12s--14--15----|
------------------------------|-----------------------------|
--0--0--0--0--0--12----0--12--|--L--0--12----10s--12--13----|
--0--0--0--0--0--------0------|-----0-----------------------|


  PM PM PM PM PM       PM           PM
  E  E  S  S  E   Q    E   E     E  E   Q     E    E   E    E
------------------------------|--------------------------------|
------------------------------|--------------------------------|
-----------------14-------14--|--L-----14----12s--14--12s--14--|
------------------------------|--------------------------------|
--0--0--0--0--0--12----0--12--|--L--0--12----10s--12--10s--12--|
--0--0--0--0--0--------0------|-----0--------------------------|


  PM PM PM PM PM       PM           PM
  E  E  S  S  E   Q    E   E     E  E   Q     E    E   E    E
------------------------------|--------------------------------|
------------------------------|--------------------------------|
-----------------14-------14--|--L-----14----12s--14--12s--14--|
------------------------------|--------------------------------|
--0--0--0--0--0--12----0--12--|--L--0--12----10s--12--10s--12--|
--0--0--0--0--0--------0------|-----0--------------------------|


  PM PM PM PM PM       PM           PM
  E  E  S  S  E   Q    E   E     E  E   Q     E    E   E    E
------------------------------|--------------------------------|
------------------------------|--------------------------------|
-----------------14-------14--|--L-----14----12s--14--12s--14--|
------------------------------|--------------------------------|
--0--0--0--0--0--12----0--12--|--L--0--12----10s--12--10s--12--|
--0--0--0--0--0--------0------|-----0--------------------------|


  PM PM PM PM PM       PM           PM
  E  E  S  S  E   Q    E   E     E  E   Q     E    E   Q
------------------------------|-----------------------------|
------------------------------|-----------------------------|
-----------------14-------14--|--L-----14----12s--14--15----|
------------------------------|-----------------------------|
--0--0--0--0--0--12----0--12--|--L--0--12----10s--12--13----|
--0--0--0--0--0--------0------|-----0-----------------------|


  PM PM PM                                        PM PM PM
  S  S  E  Q     H            W                   S  S  E  Q     H
--------------------------|--------------------|--------------------------|
----------------11--------|---L----------------|----------------11--------|
----------------14--------|---L----------------|----------------14--------|
--------------------------|--------------------|--------------------------|
--0--0--0--0----12--------|---L----------------|--0--0--0--0----12--------|
--0--0--0--0--------------|--------------------|--0--0--0--0--------------|


                      PM PM PM
  W                   S  S  E  Q     H           W
-------------------|--------------------------|-------------------|
--L----------------|----------------11--------|--L----------------|
--L----------------|----------------14--------|--L----------------|
-------------------|--------------------------|-------------------|
--L----------------|--0--0--0--0----12--------|--L----------------|
-------------------|--0--0--0--0--------------|-------------------|


                                          PM PM PM PM PM
  W                   W                   S  S  S  S  E  E  H
-------------------|-------------------|-----------------------------|
-------------------|-------------------|-----------------------------|
-------------------|-------------------|-----------------------------|
-------------------|-------------------|-----------------------------|
-------------------|-------------------|--0--0--0--0--0--------------|
-------------------|-------------------|--0--0--0--0--0--------------|


  PM PM PM PM PM    PM PM PM PM PM       PM  PM  PM
  S  S  S  S  E  E  S  S  S  S  E  E     E.  E.  E  H
--------------------------------------|----------------------|
--------------------------------------|----------------------|
--------------------------------------|----------------------|
--------------------------------------|----------------------|
--0--0--0--0--0-----0--0--0--0--0-----|--0---0---0-----------|
--0--0--0--0--0-----0--0--0--0--0-----|--0---0---0-----------|


  PM PM PM PM PM    PM PM PM PM PM       PM  PM  PM
  S  S  S  S  E  E  S  S  S  S  E  E     E.  E.  E  H
--------------------------------------|----------------------|
--------------------------------------|----------------------|
--------------------------------------|----------------------|
--------------------------------------|----------------------|
--0--0--0--0--0-----0--0--0--0--0-----|--0---0---0-----------|
--0--0--0--0--0-----0--0--0--0--0-----|--0---0---0-----------|


  PM PM PM PM PM    PM PM PM PM PM       PM  PM  PM
  S  S  S  S  E  E  S  S  S  S  E  E     E.  E.  E  H
--------------------------------------|----------------------|
--------------------------------------|----------------------|
--------------------------------------|----------------------|
--------------------------------------|----------------------|
--0--0--0--0--0-----0--0--0--0--0-----|--0---0---0-----------|
--0--0--0--0--0-----0--0--0--0--0-----|--0---0---0-----------|


  PM PM PM PM PM    PM PM PM PM PM       PM PM PM PM PM
  S  S  S  S  E  E  S  S  S  S  E  E     S  S  S  S  E  E  H
--------------------------------------|-----------------------------|
--------------------------------------|-----------------------------|
--------------------------------------|-----------------------------|
--------------------------------------|-----------------------------|
--0--0--0--0--0-----0--0--0--0--0-----|--0--0--0--0--0--------------|
--0--0--0--0--0-----0--0--0--0--0-----|--0--0--0--0--0--------------|


  PM PM PM PM PM    PM PM PM PM PM       PM  PM  PM
  S  S  S  S  E  E  S  S  S  S  E  E     E.  E.  E  H
--------------------------------------|----------------------|
--------------------------------------|----------------------|
--------------------------------------|----------------------|
--------------------------------------|----------------------|
--0--0--0--0--0-----0--0--0--0--0-----|--0---0---0-----------|
--0--0--0--0--0-----0--0--0--0--0-----|--0---0---0-----------|


  PM PM PM PM PM    PM PM PM PM PM       PM  PM  PM
  S  S  S  S  E  E  S  S  S  S  E  E     E.  E.  E  H
--------------------------------------|----------------------|
--------------------------------------|----------------------|
--------------------------------------|----------------------|
--------------------------------------|----------------------|
--0--0--0--0--0-----0--0--0--0--0-----|--0---0---0-----------|
--0--0--0--0--0-----0--0--0--0--0-----|--0---0---0-----------|


  PM PM PM PM PM    PM PM PM PM PM       PM  PM  PM
  S  S  S  S  E  E  S  S  S  S  E  E     E.  E.  E  H
--------------------------------------|----------------------|
--------------------------------------|----------------------|
--------------------------------------|----------------------|
--------------------------------------|----------------------|
--0--0--0--0--0-----0--0--0--0--0-----|--0---0---0-----------|
--0--0--0--0--0-----0--0--0--0--0-----|--0---0---0-----------|


  PM PM PM PM PM    PM PM PM PM PM
  S  S  S  S  E  E  S  S  S  S  E  E     W                   W
--------------------------------------|-------------------|-------------------|
--------------------------------------|-------------------|-------------------|
--------------------------------------|-------------------|-------------------|
--------------------------------------|-------------------|-------------------|
--0--0--0--0--0-----0--0--0--0--0-----|-------------------|-------------------|
--0--0--0--0--0-----0--0--0--0--0-----|-------------------|-------------------|


  W                   W                    E   E   E   E   E   E   E   E
-------------------|-------------------|----------------------------------|
-------------------|-------------------|--10--10--10--10--10--10--10--10--|
-------------------|-------------------|----------------------------------|
-------------------|-------------------|---7---7---7---7---7---7---7---7--|
-------------------|-------------------|----------------------------------|
-------------------|-------------------|----------------------------------|


   E   E   E   E   E   E   E   E     E  E  E  E  E  E  E  E
----------------------------------|--------------------------|
--10--10--10--10--10--10--10--10--|--8--8--8--8--8--8--8--8--|
----------------------------------|--------------------------|
---7---7---7---7---7---7---7---7--|--5--5--5--5--5--5--5--5--|
----------------------------------|--------------------------|
----------------------------------|--------------------------|


  E  E  E  E  E  E  E  E      E   E   E   E   E   E   E   E
--------------------------|----------------------------------|
--8--8--8--8--8--8--8--8--|--11--11--11--11--11--11--11--11--|
--------------------------|----------------------------------|
--5--5--5--5--5--5--5--5--|---8---8---8---8---8---8---8---8--|
--------------------------|----------------------------------|
--------------------------|----------------------------------|


   E   E   E   E   E   E   E   E      E   E   E   E   E   E   E   E
----------------------------------|----------------------------------|
--11--11--11--11--11--11--11--11--|--13--13--13--13--13--13--13--13--|
----------------------------------|----------------------------------|
---8---8---8---8---8---8---8---8--|--10--10--10--10--10--10--10--10--|
----------------------------------|----------------------------------|
----------------------------------|----------------------------------|


   E   E   E   E   E   E   E   E      E   E   E   E   E   E   E   E
----------------------------------|----------------------------------|
--11--11--11--11--11--11--11--11--|--10--10--10--10--10--10--10--10--|
----------------------------------|----------------------------------|
---8---8---8---8---8---8---8---8--|---7---7---7---7---7---7---7---7--|
----------------------------------|----------------------------------|
----------------------------------|----------------------------------|


   E   E   E   E   E   E   E   E     E  E  E  E  E  E  E  E
----------------------------------|--------------------------|
--10--10--10--10--10--10--10--10--|--8--8--8--8--8--8--8--8--|
----------------------------------|--------------------------|
---7---7---7---7---7---7---7---7--|--5--5--5--5--5--5--5--5--|
----------------------------------|--------------------------|
----------------------------------|--------------------------|


  E  E  E  E  E  E  E  E      E   E   E   E   E   E   E   E
--------------------------|----------------------------------|
--8--8--8--8--8--8--8--8--|--11--11--11--11--11--11--11--11--|
--------------------------|----------------------------------|
--5--5--5--5--5--5--5--5--|---8---8---8---8---8---8---8---8--|
--------------------------|----------------------------------|
--------------------------|----------------------------------|


   E   E   E   E   E   E   E   E      E   E   E   E   E   E   E   E
----------------------------------|----------------------------------|
--11--11--11--11--11--11--11--11--|--13--13--13--13--13--13--13--13--|
----------------------------------|----------------------------------|
---8---8---8---8---8---8---8---8--|--10--10--10--10--10--10--10--10--|
----------------------------------|----------------------------------|
----------------------------------|----------------------------------|


   E   E   E   E   E   E   E   E      E   E   E   E   E   E   E   E
----------------------------------|----------------------------------|
--11--11--11--11--11--11--11--11--|--10--10--10--10--10--10--10--10--|
----------------------------------|----------------------------------|
---8---8---8---8---8---8---8---8--|---7---7---7---7---7---7---7---7--|
----------------------------------|----------------------------------|
----------------------------------|----------------------------------|


   E   E   E   E   E   E   E   E     E  E  E  E  E  E  E  E
----------------------------------|--------------------------|
--10--10--10--10--10--10--10--10--|--8--8--8--8--8--8--8--8--|
----------------------------------|--------------------------|
---7---7---7---7---7---7---7---7--|--5--5--5--5--5--5--5--5--|
----------------------------------|--------------------------|
----------------------------------|--------------------------|


  E  E  E  E  E  E  E  E      E   E   E   E   E   E   E   E
--------------------------|----------------------------------|
--8--8--8--8--8--8--8--8--|--11--11--11--11--11--11--11--11--|
--------------------------|----------------------------------|
--5--5--5--5--5--5--5--5--|---8---8---8---8---8---8---8---8--|
--------------------------|----------------------------------|
--------------------------|----------------------------------|


   E   E   E   E   E   E   E   E      E   E   E   E   E   E   E   E
----------------------------------|----------------------------------|
--11--11--11--11--11--11--11--11--|--13--13--13--13--13--13--13--13--|
----------------------------------|----------------------------------|
---8---8---8---8---8---8---8---8--|--10--10--10--10--10--10--10--10--|
----------------------------------|----------------------------------|
----------------------------------|----------------------------------|


   E   E   E   E   E   E   E   E      E   E   E   E   E   E   E   E
----------------------------------|----------------------------------|
--11--11--11--11--11--11--11--11--|--10--10--10--10--10--10--10--10--|
----------------------------------|----------------------------------|
---8---8---8---8---8---8---8---8--|---7---7---7---7---7---7---7---7--|
----------------------------------|----------------------------------|
----------------------------------|----------------------------------|


   E   E   E   E   E   E   E   E     E  E  E  E  E  E  E  E
----------------------------------|--------------------------|
--10--10--10--10--10--10--10--10--|--8--8--8--8--8--8--8--8--|
----------------------------------|--------------------------|
---7---7---7---7---7---7---7---7--|--5--5--5--5--5--5--5--5--|
----------------------------------|--------------------------|
----------------------------------|--------------------------|


                                      PM PM PM
  E  E  E  E  E  E  E  E     H        S  S  E  Q
--------------------------|-------------------------|
--8--8--8--8--8--8--8--8--|-------------------------|
--------------------------|-------------------------|
--5--5--5--5--5--5--5--5--|-------------------------|
--------------------------|--0--------0--0--0-------|
--------------------------|--0--------0--0--0-------|


                                                      PM PM PM
  |---3--|  |---3--|  |---3--|  |---3--|
  E   E  E  E   E  E  E   E  E  E   E  E     H        S  S  E  Q
------------------------------------------|-------------------------|
------------------------------------------|-------------------------|
------------------------------------------|-------------------------|
------------------------------------------|-------------------------|
--8p--7--0--8p--7--0--8p--7--0--8p--7--0--|--0--------0--0--0-------|
------------------------------------------|--0--------0--0--0-------|


                                                      PM PM PM
  |---3--|  |---3--|  |---3--|  |---3--|
  E   E  E  E   E  E  E   E  E  E   E  E     H        S  S  E  Q
------------------------------------------|-------------------------|
------------------------------------------|-------------------------|
------------------------------------------|-------------------------|
------------------------------------------|-------------------------|
--8p--7--0--8p--7--0--7p--5--0--7p--5--0--|--0--------0--0--0-------|
------------------------------------------|--0--------0--0--0-------|


                                                      PM PM PM
  |---3--|  |---3--|  |---3--|  |---3--|
  E   E  E  E   E  E  E   E  E  E   E  E     H        S  S  E  Q
------------------------------------------|-------------------------|
------------------------------------------|-------------------------|
------------------------------------------|-------------------------|
------------------------------------------|-------------------------|
--8p--7--0--8p--7--0--8p--7--0--8p--7--0--|--0--------0--0--0-------|
------------------------------------------|--0--------0--0--0-------|


  |---3--|  |---3--|   |---3--|   |---3--|
  E   E  E  E   E  E   E   E  E   E   E  E
--------------------------------------------|
--------------------------------------------|
--------------------------------------------|
--------------------------------------------|
--8p--7--0--8p--7--0--10p--8--0--10p--8--0--|
--------------------------------------------|


  |---3--|  |---3--|  |---3--|  |---3--|
  E   E  E  E   E  E  E   E  E  E   E  E
------------------------------------------|
------------------------------------------|
------------------------------------------|
------------------------------------------|
--8p--7--0--8p--7--0--8p--7--0--8p--7--0--|
------------------------------------------|


   |---3---|   |---3---|   |---3---|   |---3---|
   E    E  E   E    E  E   E    E  E   E    E  E
--------------------------------------------------|
--------------------------------------------------|
--------------------------------------------------|
--------------------------------------------------|
--12p--10--0--12p--10--0--12p--10--0--12p--10--0--|
--------------------------------------------------|


  |---3--|  |---3--|  |---3--|  |---3--|
  E   E  E  E   E  E  E   E  E  E   E  E
------------------------------------------|
------------------------------------------|
------------------------------------------|
------------------------------------------|
--8p--7--0--8p--7--0--8p--7--0--8p--7--0--|
------------------------------------------|


   |---3---|   |---3---|   |---3--|   |---3--|
   E    E  E   E    E  E   E   E  E   E   E  E
------------------------------------------------|
------------------------------------------------|
------------------------------------------------|
------------------------------------------------|
--12p--10--0--12p--10--0--10p--8--0--10p--8--0--|
------------------------------------------------|


  |---3--|  |---3--|  |---3--|  |---3--|
  E   E  E  E   E  E  E   E  E  E   E  E
------------------------------------------|
------------------------------------------|
------------------------------------------|
------------------------------------------|
--8p--7--0--8p--7--0--8p--7--0--8p--7--0--|
------------------------------------------|


   |---3---|   |---3---|   |---3---|   |---3---|
   E    E  E   E    E  E   E    E  E   E    E  E
--------------------------------------------------|
--------------------------------------------------|
--------------------------------------------------|
--------------------------------------------------|
--12p--10--0--12p--10--0--12p--10--0--12p--10--0--|
--------------------------------------------------|


  |---3--|  |---3--|  |---3--|  |---3--|
  E   E  E  E   E  E  E   E  E  E   E  E
------------------------------------------|
------------------------------------------|
------------------------------------------|
------------------------------------------|
--8p--7--0--8p--7--0--8p--7--0--8p--7--0--|
------------------------------------------|


                                                              PM PM PM
   |---3---|   |---3---|   |---3---|   |---3---|
   E    E  E   E    E  E   E    E  E   E    E  E     H        S  S  E  Q
--------------------------------------------------|-------------------------||
--------------------------------------------------|-------------------------||
--------------------------------------------------|-------------------------||
--------------------------------------------------|-------------------------||
--12p--10--0--12p--10--0--13p--12--0--13p--12--0--|--0--------0--0--0-------||
--------------------------------------------------|--0--------0--0--0-------||


Duration Legend
---------------
W - whole
H - half
Q - quarter
E - 8th
S - 16th
T - 32nd
X - 64th
. - note dotted
|-n-|  - n-tuplets


Tablature Legend
----------------
L - tied note
x - dead note
g - grace note
(n) - ghost note
> - accentuded note
NH - natural harmonic
AH - artificial harmonic
TH - tapped harmonic
SH - semi harmonic
PH - pitch harmonic
h - hammer on
p - pull off
b - bend
br - bendRelease
pb - preBend
pbr - preBendRelease
brb - bendReleaseBend
\n/ - tremolo bar dip
\n - tremolo bar dive
-/n - tremolo bar Release up
/n\ - tremolo bar inverted dip
/n - tremolo bar return
-\n - tremolo bar Release down
S - shift slide
s - legato slide
/ -  slide into from below or out of upwards
\ -  slide into from above or out of downwards
~ - vibrato
W - wide vibrato
tr - trill
TP - tremolo picking
T - tapping
S - slap
P - pop
< - fade in
^ - brush up
v - brush down
Добавлено: 02.06.2012
Другие материалы по этой песне:

Страница создана 30.04.2012
http://primanota.ru/drop-dead-gorgeous/dressed-for-friend-request-chords.htm
Привет, Гость.
Предлагаем пройти революционный курс по гитаре.
Подарок от PrimaNota.Ru, забирай!