PrimaNota.ru - самый крупный в мире бесплатный архив песенных текстов, аккордов, табулатур и нот


Drop Dead Gorgeous - Drawing The Devil - текст песни, таба, видео

Регистрация Запомнить меня
Войти через:  Facebook Google Twitter Vk Yandex Mail.ru

Drop Dead Gorgeous - Drawing The Devil - текст песни, таба, видео

Печатать
Просмотров: 144
Drawing The Devil
Drop Dead, Gorgeous
All Guitars tuned in Drop C(CGCFAD)

****UPDATE****
12/16/2007
-"I sorta fixed somethings and adding the Guitar 2 to the verses and what not...
I still can't figure out the intro."

****UPDATE****
5/11/2008
-"Using the new version on the Drawing The Devil Intro...
I changed things; intro, verses, breakdowns & outro."


-Intro/Chorus-
Gtr 1,2- Distortion
D||---------------------------------------------------|
A||o--------------------------------------------------|
F||-10--10-10-10-10-10-9-9-9-9-9-10-10-10-10-12/14\12-|
C||--0--0--0--0--0--0--0-0-0-0-0-0--0--0--0--0--------|
G||o-0--0--0--0--0--0--0-0-0-0-0-0--0--0--0--0--------|
C||--0--0--0--0--0--0--0-0-0-0-0-0--0--0--0--0--------|
"...And the devil's own hand, was knotted by the pastor"

D|-------------------------------------------------|
A|-------------------------------------------------|
F|-10--10-10-10-10--15-15-15--9--9-9-9-9--14-14-14-|
C|-8---8--8--8--8-------------7--7-7-7-7-----------|
G|-8---8--8--8--8---13-13-13--7--7-7-7-7--12-12-12-|
C|-8---8--8--8--8-------------7--7-7-7-7-----------|
"...And we dared to admit, her weakness was laughter"

D|------------------------------------------|
A|------------------------------------------|
F|------------------------------------------|
C|-7--8-8-8-8-8--8\---0---0---0---0---x-0-0-|
G|-7--8-8-8-8-8--8\---0---0---0---0---x-0-0-|
C|-7--8-8-8-8-8--8\---0---0---0---0---x-0-0-|
"...And the scared victim, begged for her life!!"

D|-----------------------------------------||
A|----------------------------------------o||
F|-10-10-10-10-10--9-9-9-9-9--10-10-10-10--||
C|-----------------------------------------||
G|-8--8--8--8--8---7-7-7-7-7--8--8--8--8--o||
C|-----------------------------------------||
"...We watched it eeeeeeeennnd"


At the end of the second time.
Gtr 1 plays this...
D|--------------------------|
A|--------------------------|
F|-10-10-10-10------9h10p9~-|
C|--------------------------|
G|-8--8--8--8---8p7---------|
C|--------------------------|
then plays his Interlude bit


-Interlude- x3
Gtr 1
D||---------------------------------||--------|
A||o-10-10-10-10-10-11-11-11-11-11-o||--10b^--|
F||--10-10-10-10-10-10-10-10-10-10--||--10b^--|
C||---------------------------------||--------|
G||o-------------------------------o||--------|
C||---------------------------------||--------|

-Verse-
Gtr 1,2
D|------------------------------------------|
A|------------------------------------------|
F|------------------------------------------|
C|------------------------------------------|
G|-0--0-0---------------0-0--0-0------------|
C|-0--0-0--7p0-5p0-3p0--0-0--0-0--7h8p0-5p0-|
"...Did you miss me?!! You're shaking."

D|-----------------------------------------------------|
A|-----------------------------------------------------|
F|-151515151515-141414141414-171717171717-191919191919-|
C|-----------------------------------------------------|
G|-131313131313-121212121212-151515151515-171717171717-|
C|-----------------------------------------------------|
"...I'm not the one who left you in the cellar, all bothered,
It's me! It's not your father!"

D|------------------------------------------|
A|------------------------------------------|
F|------------------------------------------|
C|------------------------------------------|
G|-0--0-0---------------0-0--0-0------------|
C|-0--0-0--7p0-5p0-3p0--0-0--0-0--7h8p0-5p0-|
"...I'M HERE!!! To take you away."

D|-----------------------------------------------------|
A|-----------------------------------------------------|
F|-151515151515-141414141414-121212121212-101010101010-|
C|-----------------------------------------------------|
G|-131313131313-121212121212-101010101010-8-8-8-8-8-8--|
C|-----------------------------------------------------|
"...Give me your hand! Spare your life!!!"

D|--------------------------------|
A|--------------------------------|
F|--------------------------------|
C|-0----0--0----0--0----0--0----0-|
G|-0----0--0----0--0----0--0----0-|
C|-0----0--0----0--0----0--0----0-|
"...She's breaking ouutt"

D|-----------------------------------------------------|
A|-----------------------------------------------------|
F|-151515151515-141414141414-171717171717-191919191919-|
C|-----------------------------------------------------|
G|-131313131313-121212121212-151515151515-171717171717-|
C|-----------------------------------------------------|
"...And they're all laughing noww!!"

D|-----------------------------------------|
A|-----------------------------------------|
F|-----------------------------------------|
C|-0-0--0-0------------0-0--0-0------------|
G|-0-0--0-0------------0-0--0-0------------|
C|-0-0--0-0-/8-8-8-8\--0-0--0-0--/7-7-7-7\-|
"...Behind your devilish figure"

D|-----------------------------------------------------|
A|-----------------------------------------------------|
F|-151515151515-141414141414-121212121212-101010101010-|
C|-----------------------------------------------------|
G|-131313131313-121212121212-101010101010-8-8-8-8-8-8--|
C|-----------------------------------------------------|
"...Behold the smoking gun"

-Interlude-
Gtr 1
D|-------------------------------------|-------|
A|-------------------------------------|-------|
F|------12-12-------10-10-------9--9---|-------|
C|------10-10-------8--8--------7--7---|-------|
G|-0-0--10-10--0-0--8--8---0-0--7--7---|-------|
C|-0-0---------0-0---------0-0---------|--9\---|
   pm-         - -         - -
Gtr 2
D|-------------------------------------|-------|
A|-------------------------------------|-------|
F|-7~~~~~~~~~~~~~~~~~~-----------------|-------|
C|-------------------------------------|-------|
G|-5~~~~~~b~~~~~~r~~~~-----------------|-------|
C|-------------------------------------|--9\---|

-Chorus-
Gtr 1,2- Distortion
D||---------------------------------------------------|
A||o--------------------------------------------------|
F||-10--10-10-10-10-10-9-9-9-9-9-10-10-10-10-12/14\12-|
C||--0--0--0--0--0--0--0-0-0-0-0-0--0--0--0--0--------|
G||o-0--0--0--0--0--0--0-0-0-0-0-0--0--0--0--0--------|
C||--0--0--0--0--0--0--0-0-0-0-0-0--0--0--0--0--------|
"...And the devil's own hand, was knotted by the pastor"

D|-------------------------------------------------|
A|-------------------------------------------------|
F|-10--10-10-10-10--15-15-15--9--9-9-9-9--14-14-14-|
C|-8---8--8--8--8-------------7--7-7-7-7-----------|
G|-8---8--8--8--8---13-13-13--7--7-7-7-7--12-12-12-|
C|-8---8--8--8--8-------------7--7-7-7-7-----------|
"...And we dared to admit, her weakness was laughter"

D|------------------------------------------|
A|------------------------------------------|
F|------------------------------------------|
C|-7--8-8-8-8-8--8\---0---0---0---0---x-0-0-|
G|-7--8-8-8-8-8--8\---0---0---0---0---x-0-0-|
C|-7--8-8-8-8-8--8\---0---0---0---0---x-0-0-|
"...And the scared victim, begged for her life!!"

D|-----------------------------------------||
A|----------------------------------------o||
F|-10-10-10-10-10--9-9-9-9-9--10-10-10-10--||
C|-----------------------------------------||
G|-8--8--8--8--8---7-7-7-7-7--8--8--8--8--o||
C|-----------------------------------------||
"...We watched it eeeeeeeennnd"


At the end of the second time.
Gtr 1 plays this...
D|--------------------------|
A|--------------------------|
F|-10-10-10-10------9h10p9~-|
C|--------------------------|
G|-8--8--8--8---8p7---------|
C|--------------------------|


Gtr 1 (finger over 2nd fret)      x5
D||-------------------------------||
A||o-----------------------------o||
F||-----------harm----------------||
C||--x-x-x-x-x-x-x-x-x-x-x-x-x-x--||
G||o-x-x-x-x-x-x-x-x-x-x-x-x-x-x-o||
C||--x-x-x-x-x-x-x-x-x-x-x-x-x-x--||
Gtr 2 (muted x's) [comes in 3rd time]
D||-------------------------------||
A||o-----------------------------o||
F||-------------------------------||
C||--x-x-x-x-x-x-x-x-x-x-x-x-x-x--||
G||o-x-x-x-x-x-x-x-x-x-x-x-x-x-x-o||
C||--x-x-x-x-x-x-x-x-x-x-x-x-x-x--||
“...These daggers mean nothing in the context you use them in.
And we'll believe in nothing, unless there's proof of it!!!”

Gtr 1,2- x4
D||-------------------------||
A||o-----------------------o||
F||-------------------------||
C||-------------------------||
G||o-0----0--0--0--0--0--0-o||
C||--0----0--0--0--0--0--0--||
“...YOU SEEK OUT, THOSE WHO FORGIVE!"

Gtr 1- x4
D||-------------------------------------------||
A||o--------------------------------gradbend-o||
F||---------------------------------7b77777r~-||
C||----0h7h8p7---0h8h10p8---0h5h7p5-----------||
G||o-----------------------------------------o||
C||-------------------------------------------||
Gtr 2- x4
D||-------------------------------------------||
A||o-----------------------------------------o||
F||-------------------------------------------||
C||--0---------0----------0----------0-0------||
G||o-0---------0----------0----------0-0-----o||
C||--0---------0----------0----------0-0------||
“...I met you at the altar and your lips tasted different.
Then placed my ring upon your hand and knew we'd die together.
And now, I call you my wife. Give me your heart,
I'll grow it into size!!!”

-Bass Interlude- x6
F||-----------------------------------------------------||
C||o---------------------------------------------------o||
G||o-----1-1-1-1-1-----0-0-0~------3-3-3-3-3-----1-1-0-o||
C||--0-0-----------0-0---------0-0-----------0-0--------||
"...You're dancing aroooouuunnd, yourself"

Gtr 1 w/delay
D||--------------------------------------||
A||o------------------------------------o||
F||-------10-10---(10)--------9-9---(9)--||
C||-------8--8----(8)---------7-7---(7)--||
G||o-0-0--8--8----(8)----0-0--7-7---(7)-o||
C||--0-0-----------------0-0-------------||
     pm-                 - -
"...You're dancing aroooouuunnd, yourself"

Gtr 1,2
D|----------------------------------|
A|----------------------------------|
F|------10-10-10-10-10-------9-9-9--|
C|------8--8--8--8--8--------7-7-7--|
G|-0-0--8--8--8--8--8---0-0--7-7-7--|
C|-0-0------------------0-0---------|
   pm-                  - -
"...You're dancing aroooouuunnd, yourself"
D|------------------------------------|
A|------------------------------------|
F|------12-12-12-12-12-------10-10--9-|
C|------10-10-10-10-10-------8--8---7-|
G|-0-0--10-10-10-10-10--0-0--8--8---7-|
C|-0-0------------------0-0-----------|
   pm-                  - -
"...You're dancing aroooouuunnd, yourself"

-Heavy Outro- x6
D||------------------------------------------------|
A||o-----------------------------------------------|
F||-------15--15--15--15--15-------14--14--14------|
C||--0-0----------------------0-0------------------|
G||o-0-0--13--13--13--13--13--0-0--12--12--12--12\-|
C||--0-0----------------------0-0--------------12\-|
"...Dancing ahh, ROOOOOOOUUUUUUUNND, yourself"
D|------------------------------------------------||--------|
A|-----------------------------------------------o||--------|
F|------17--17--17--17--17-------15--15--14-------||--------|
C|-0-0----------------------0-0-------------------||--0~~~~-|
G|-0-0--15--15--15--15--15--0-0--13--13--12--12\-o||--0~~~~-|
C|-0-0----------------------0-0--------------12\--||--0~~~~-|
"...Dancing ahh, ROOOOOOOUUUUUUUNND, yourself"
Добавлено: 25.05.2012
Другие материалы по этой песне:
  • Аккорды и текст

Страница создана 25.05.2012
http://primanota.ru/drop-dead-gorgeous/drawing-the-devil-chords.htm
Привет, Гость.
Предлагаем пройти революционный курс по гитаре.
Подарок от PrimaNota.Ru, забирай!