PrimaNota.ru - самый крупный в мире бесплатный архив песенных текстов, аккордов, табулатур и нот


Drop Dead Gorgeous - Donner Party Of Five - текст песни, таба, видео

Регистрация Запомнить меня
Войти через:  Facebook Google Twitter Vk Yandex Mail.ru

Drop Dead Gorgeous - Donner Party Of Five - текст песни, таба, видео

Печатать
Просмотров: 201
Artist: Drop Dead, Gorgeous
Song: Donner Party of Five
Album: Worse Than a Fairy Tale
Tuning: Dropped C
!!! PLEASE NOTE !!! Sometimes I can't tell the difference between the
guitars and keyboards...they use way too many effects.
Also, this is as close as I could get but
it's probably not like 100% 100%, but close.

Intro:
“Your nails, fashion red..”
D|-----------------------------------------|
A|-----------------------------------------|
F|----------------10---10---10-13-13-13-13-|
C|0-/6-0-3/-8-0-0-x--0-x--0-x--x--x--x--x--|
G|----------------8--0-8--0-8--11-11-11-11-|
C|-------------------0----0----------------|
Play that until the pre-chorus

Second guitar (or keys?) comes in with:
“Do you think I'm a killer? Do you think these eyes..”
D|13--------13--------13--------16----16----|
A|------------------------------------------|
F|-----10--------10--------10------13----13-|
C|------------------------------------------|
G|---8----8----8----8----8----8-------------|
C|------------------------------------------|

Pre-chorus:
“Please take me with you”
D|--------------------------------|
A|-----------play twice-----------|
F|--------------------------------|
C|0---8-8-8-8-8-8-0---8-0---8-8-8-|
G|0---x-x-x-x-x-x-0---x-0---x-x-x-|
C|0---7-7-7-7-7-7-0---7-0---7-7-7-|

I don't know how they finger these two measures
[split between 2 guitars?], but these are the chords that build up
D|--------------------------------|
A|--------------------------------|
F|----6-6-6-6-6-6-----6-----6-6-6-|
C|0---8-8-8-8-8-8-0---8-0---8-8-8-|
G|0---x-x-x-x-x-x-0---x-0---x-x-x-|
C|0---7-7-7-7-7-7-0---7-0---7-7-7-|

D|--------------------------------|
A|----5-5-5-5-5-5-----5-----5-5-5-|
F|----6-6-6-6-6-6-----6-----6-6-6-|
C|0---8-8-8-8-8-8-0---8-0---8-8-8-|
G|0---x-x-x-x-x-x-0---x-0---x-x-x-|
C|0---7-7-7-7-7-7-0---7-0---7-7-7-|

Chorus:
“In autumn..”
D|---------------------------------|
A|---------------------------------|
F|7-7-7-7-7-7-7-7-3333333333333333-|
C|x-x-x-x-x-x-x-x-xxxxxxxxxxxxxxxx-|
G|5-5-5-5-7-7-8-8-1111111111111111-|
C|---------------------------------|

D|---------------------------------|
A|---------------------------------|
F|---------------------------------|
C|3-3-3-3-3-3-3-3-2222222222222222-|
G|3-3-3-3-3-3-3-3-3333333333333333-|
C|3-3-3-3-3-3-3-3-2222222222222222-|

Post-chorus:
“..God. I've watched them search..”
D|------------------------------------|
A|------------------------------------|
F|------------------------------------|
C|0---0-0---0-------------------------|
G|0---0-0---0-------0---0-0---0-------|
C|0---0-0---0-5--1--1---1-1---1-5--1--|

Pre-breakdown:
“Your nails, fashion red..” (follow the vocals)
D|-------------------------------------|
A|-------------------------------------|
F|-------------------------------------|
C|0-0----0-0-0----0-0-0-0-0-0-0-0-0----|
G|0-0----0-0-0----0-0-0-0-0-0-0-0-0----|
C|0-0----0-0-0----0-0-0-0-0-0-0-0-0----|

D|----------------------------------|
A|----------------------------------|
F|----------------------------------|
C|0-0-0----0-0----0-0---0-0---0--0--|
G|0-0-0----0-0----0-0---0-0---0--0--|
C|0-0-0----0-0----0-0---0-0---0--0--|

Breakdown:
D|-------------------------------------|
A|-------------------------------------|
F|-------------------------------------|
C|0-0----0-0-0----0-0-0-0-0-0-0-0-0----|
G|0-0----0-0-0----0-0-0-0-0-0-0-0-0----|
C|0-0----0-0-0----0-0-0-0-0-0-0-0-0----|

D|----------------------------------|
A|----------------------------------|
F|----------------------------------|
C|1-1-1----1-1----1-1---1-1---1--1--|
G|1-1-1----1-1----1-1---1-1---1--1--|
C|1-1-1----1-1----1-1---1-1---1--1--|

Post-breakdown:
(instead of hitting the 1b r the other guitar hits a p.h. somewhere. Gb maybe?)
D|-------------------------|
A|-------------------------|
F|-------------------------|
C|-------------------------|
G|-------------------------|
C|4--0--4--6--4--0--1b--r--|

Then play the pre-chorus, then play the chorus
like a million times and then the keyboard outro
comes on and the song is done, YAY!
Добавлено: 07.03.2012
Другие материалы по этой песне:
  • Аккорды и текст

Страница создана 07.03.2012
http://primanota.ru/drop-dead-gorgeous/donner-party-of-five-chords.htm
Привет, Гость.
Предлагаем пройти революционный курс по гитаре.
Подарок от PrimaNota.Ru, забирай!