PrimaNota.ru - самый крупный в мире бесплатный архив песенных текстов, аккордов, табулатур и нот


Drop Dead Gorgeous - Daniel Wheres The Boat - текст песни, таба, бас-таба, видео

Регистрация Запомнить меня
Войти через:  Facebook Google Twitter Vk Yandex Mail.ru

Drop Dead Gorgeous - Daniel Wheres The Boat - текст песни, таба, бас-таба, видео

Печатать
Просмотров: 132
hey, so i came on or w.e looking for tabs i could do and there is NO tab for this song 
here it is im pretty sure its right but i could be wrong.


Drop C


Guitar one - left speaker - intro
-------------------------------------------------------|
--3-3-3-3---3-3-3-3---3-3---6-6-6-6---6-6-6-6---6-6----|
--0-0-0-0---0-0-0-0---0-0---3-3-3-3---3-3-3-3---3-3----|
-------------------------------------------------------|   4x
-------------------------------------------------------|
-------------------------------------------------------|

verse 1
---------------------------------------------------|
------------------3--------------3-------3---------|
------------------0--------------0-------0---------|
---------------------------------------------------|
--0-0-0--0-0-0-0----0-0-0--0-0-0---0-0-0-----------|
--0-0-0--0-0-0-0----0-0-0--0-0-0---0-0-0-----------|
  * * *  * * * *    * * *  * * *   * * *


---------------------------------------------------|
-----------------3-----------------6--3------------|
-----------------0-----------------3--0------------|
---------------------------------------------------|
--0-0-0--0-0-0-0-----0-0-0--0-0-0------------------|
--0-0-0--0-0-0-0-----0-0-0--0-0-0------------------|
  * * *  * * * *     * * *  * * *


-------------|
-------------|
-------------|
-------------|     3x then stops for one time then 3 times
0-0-0-0-0-0--|
0-0-0-0-0-0--|
* * * * * *


chorus
-------------------------------------------------------|
--3-3-3-3---3-3-3-3---3-3---6-6-6-6---6-6-6-6---6-6----|
--0-0-0-0---0-0-0-0---0-0---3-3-3-3---3-3-3-3---3-3----|
-------------------------------------------------------|   2x
-------------------------------------------------------|
-------------------------------------------------------|

-----------------------------------------------------------|
--3-3-3-3---3-3-3---6-6-6-6---6-6-6--3-3-3---3-3-3---6-6-6-|
--0-0-0-0---0-0-0---3-3-3-3---3-3-3--0-0-0---0-0-0---3-3-3-|
-----------------------------------------------------------|
-----------------------------------------------------------|
-----------------------------------------------------------|

bridge
----------------------------------------------------------------------|
----------------------------------------------------------------------|
----------------------------------------------------------------------|
----------------------------------------------------------------------|
--0-0---0-0--0-0---8-8---8-8--8-8---0-0---0-0--0-0---8-8---8-8--8-8-8-|
--0-0---0-0--0-0---8-8---8-8--8-8---0-0---0-0--0-0---8-8---8-8--8-8-8-|
  * *   * *  * *   * *   * *  * *   * *   * *  * *   * *   * *  * *

-------------------------------------------------------------------------|
-------------------------------------------------------------------------|
-------------------------------------------------------------------------|
-------------------------------------------------------------------------|
--0-0---0-0--0-0---8-8---8-8--8-8---0-0---0-0--0-0---8-8---8-8--8-8-8----|(0)
--0-0---0-0--0-0---8-8---8-8--8-8---0-0---0-0--0-0---8-8---8-8--8-8-8----|(0)


--------------------------------------------------------|
--------------------------------------------------------|
--------------------------------------------------------|
--------------------------------------------------------|
--0-0--0-0--0-0-0--0-0--0-0--0-0-0-0-0--0-0--0-0-0-0----|(0)
--0-0--0-0--0-0-0--0-0--0-0--0-0-0-0-0--0-0--0-0-0-0----|(0)
            * * *            * * * * *       * * * *

outro
----------------------------------|
----------------------------------|
----------------------------------|
----------------------------------|
-0-0--(0)--0-0--(0)--0-0----------|(0)-(0)
-0-0--(0)--0-0--(0)--0-0----------|(0)-(0)


thats guitar one


guitar 2- right speaker - intro
---------------------------------------------------------------|
---------------------------------------------------------------|
---------------------------------------------------------------|  2x
---------------------------------------------------------------|
--0-0--0-0--0-0--8-8--8-8--8-8--0-0--0-0--0-0--8-8--8-8--8-8---|
--0-0--0-0--0-0--8-8--8-8--8-8--0-0--0-0--0-0--8-8--8-8--8-8---|
  * *  * *  * *  * *  * *  * *  * *  * *  * *  * *  * *  * *

verse 1
---------------------------------------------------|
------------------3--------------3-------3---------|
------------------0--------------0-------0---------|
---------------------------------------------------|
--0-0-0--0-0-0-0----0-0-0--0-0-0---0-0-0-----------|
--0-0-0--0-0-0-0----0-0-0--0-0-0---0-0-0-----------|

---------------------------------------------------|
-----------------3-----------------6--3------------|
-----------------0-----------------3--0------------|
---------------------------------------------------|
--0-0-0--0-0-0-0-----0-0-0--0-0-0------------------|
--0-0-0--0-0-0-0-----0-0-0--0-0-0------------------|


-------------|
-------------|
-------------|
-------------|     3x then stops for one time then 3 times
0-0-0-0-0-0--|
0-0-0-0-0-0--|
* * * * * *

chorus
---------------------------------------------------------------|
---------------------------------------------------------------|
---------------------------------------------------------------|  2x
---------------------------------------------------------------|
--0-0--0-0--0-0--8-8--8-8--8-8--0-0--0-0--0-0--8-8--8-8--8-8---|
--0-0--0-0--0-0--8-8--8-8--8-8--0-0--0-0--0-0--8-8--8-8--8-8---|


-----     -----|
-----     -----|
-----     -----|
-----     -----|   2x
-(0)-     -(8)-|
-(0)-     -(8)-|

bridge
----------------------------------------------------------------------|
----------------------------------------------------------------------|
----------------------------------------------------------------------|
----------------------------------------------------------------------|
--0-0---0-0--0-0---8-8---8-8--8-8---0-0---0-0--0-0---8-8---8-8--8-8-8-|
--0-0---0-0--0-0---8-8---8-8--8-8---0-0---0-0--0-0---8-8---8-8--8-8-8-|
  * *   * *  * *   * *   * *  * *   * *   * *  * *   * *   * *  * *

-------------------------------------------------------------------------|
-------------------------------------------------------------------------|
-------------------------------------------------------------------------|
-------------------------------------------------------------------------|
--0-0---0-0--0-0---8-8---8-8--8-8---0-0---0-0--0-0---8-8---8-8--8-8-8----|(0)
--0-0---0-0--0-0---8-8---8-8--8-8---0-0---0-0--0-0---8-8---8-8--8-8-8----|(0)


bridge
----------------------------------------------------------------------|
----------------------------------------------------------------------|
----------------------------------------------------------------------|
----------------------------------------------------------------------|
--0-0---0-0--0-0---8-8---8-8--8-8---0-0---0-0--0-0---8-8---8-8--8-8-8-|
--0-0---0-0--0-0---8-8---8-8--8-8---0-0---0-0--0-0---8-8---8-8--8-8-8-|
  * *   * *  * *   * *   * *  * *   * *   * *  * *   * *   * *  * *


ending
----------|
-------11-|
-------14-|
----------|
--0-0-----|
--0-0-----|
  * *


hope u like it
Добавлено: 01.07.2012
Другие материалы по этой песне:

Страница создана 21.04.2012
http://primanota.ru/drop-dead-gorgeous/daniel-wheres-the-boat-chords.htm
Привет, Гость.
Предлагаем пройти революционный курс по гитаре.
Подарок от PrimaNota.Ru, забирай!