PrimaNota.ru - самый крупный в мире бесплатный архив песенных текстов, аккордов, табулатур и нот


Drop Dead Gorgeous - Bullets Are Scene - текст песни, таба, видео

Регистрация Запомнить меня
Войти через:  Facebook Google Twitter Vk Yandex Mail.ru

Drop Dead Gorgeous - Bullets Are Scene - текст песни, таба, видео

Печатать
Просмотров: 110
----------------------------------------------------------------------------
                  Drop Dead, Gorgeous - Bullets Are Scene
----------------------------------------------------------------------------

Tabbed by: Tim Y. (bleedingx3)
email: hex_x3@yahoo.com
AIM: TimofBodomxx

Tuning : Drop C ( C G C F A D )

Legend:
p = pull off
h = hammer on
. = palm mute
~ = vibrato


|---------------|
|---------------|
|---------------|
|---------------| [4x]
|-8p0-7h07/8----|
|------------0--|


"I think that I'm missing something ... "
|------------------------------------------------|
|------------------------------------------------|
|------------------------------------------------|
|------------------------------------------------| [2x]
|-8p0-7h07/8--8p0-7h08/10--8p0-7h07/8--10-8-7-5~-|
|------------------------------------------------|


"I think that I'm missing someone ... "
|------------------------------------------------------------|
|------------------------------------------------------------|
|------------------------------------------------------------|
|-7p0-5h05/7--7p0-5h07/8--7p0-5h05/7--8-7-5-3~---------------| [Guitar 1]
|------------------------------------------------------------|
|------------------------------------------------------------|
|------------------------------------------------------------|
|                                                           | [2x]
|------------------------------------------------------------|
|------------------------------------------------------------|
|------------------------------------------------------------|
|------------------------------------------------------------|
|------------------------------------------------------------| [Guitar 2]
|-8p0-7h07/8--8p0-7h08/10--8p0-7h07/8--10-8-7-5~-------------|
|------------------------------------------------------------|


|----------------------------------------------------|
|----------------------------------------------------|
|---14--14--14------------------14--14--14-----------|
|---0---0---0-------------------0---0---0------------| [2x]
|---12--12--12------------------12--12--12-----------|
|-0--------------0-0-0-0----0----------------0-0-0-0-|
                 . . . .                     . . . .

"I want you .. right here .."
|-----------------------------------------|
|-----------------------------------------|
|------14-------12--14-------14-------12--|
|------0--------0---0--------0--------0---| [4x]
|------12-------10--12-------12-------10--|
|-0000-----000----------0000-----000------|
  ....     ...          ....     ...


|-------------------------|
|-------------------------|
|-------------------------|
|-0--0-0--8-8-8--7--7--7--| [4x]
|-0--0-0--8-8-8--7--7--7--|
|-0--0-0--8-8-8--7--7--7--|


"BUL-LETS"
|------------------------------------------|
|------------------------------------------|
|------------------------------------------|
|-000000-8888888-7--7--7-------------------| [Guitar 1]
|------------------------------------------|
|------------------------------------------|
|------------------------------------------|
|                                         | [4x]
|------------------------------------------|
|------------------------------------------|
|------------------------------------------|
|------------------------------------------|
|-0--0-0--8-8-8--7--7--7-------------------| [Guitar 2]
|-0--0-0--8-8-8--7--7--7-------------------|
|-0--0-0--8-8-8--7--7--7-------------------|


"Take a step back and tell me what you wanted..."
|----|
|----|
|-10-|
|-0--| [Duration = 1:10 - 1:24]
|-8--| [continuous strumming]
|----|

"Falling off the deep and feeling guilty as charged..."
|----|
|----|
|-14-|
|-0--| [Guitar 1]
|-12-|
|----|
|---------------------
|                     | [Duration = 1:24 - 1:31][continuous strumming]
|---------------------
|----|
|----|
|-10-|
|-0--| [Guitar 2]
|-8--|
|----|


"BULLETS ARE SCENE"
|-------------------------|
|-------------------------|
|-------------------------|
|-0--0-0--8-8-8--7--7--7--| [4x]
|-0--0-0--8-8-8--7--7--7--|
|-0--0-0--8-8-8--7--7--7--|


"BULLETS ARE SCENE"
|-----------------------------------------------------|
|--------12------12------12--12--12-------------------|
|--------15------15------15--15--15-------------------|
|-0---------------------------------------------------| [Guitar 1]
|-0---------------------------------------------------|
|-0---------------------------------------------------|
|-----------------------------------------------------|
|                                                    | [4x]
|-----------------------------------------------------|
|-----------------------------------------------------|
|-----------------------------------------------------|
|-----------------------------------------------------|
|-0---------------------------------------------------| [Guitar 2]
|-0---------------------------------------------------|
|-0-0000----0000----0000------------------------------|

[The End Part = Duration = 1:59 - 3:17]

[There might be slight variations .. its hard to tell because the guitar
is so soft.  I usually stop the song after the last riff, because this part
is boring and long.]

|-------------------------------------|
|-------------------------------------|
|-14-14-14-14-14-14-14-14-14-14-14-14-|
|-0--0--0--0--0--0--0--0--0--0--0--0--|
|-12-12-12-12-12-12-12-12-12-12-12-12-|
|-------------------------------------|

|-------------------------------------|
|-------------------------------------|
|-15-15-15-15-15-15-15-15-15-15-15-15-|
|-0--0--0--0--0--0--0--0--0--0--0--0--|
|-13-13-13-13-13-13-13-13-13-13-13-13-|
|-------------------------------------|

|-------------------------------------|
|-------------------------------------|
|-12-12-12-12-12-12-12-12-12-12-12-12-|
|-0--0--0--0--0--0--0--0--0--0--0--0--|
|-10-10-10-10-10-10-10-10-10-10-10-10-|
|-------------------------------------|

|-------------------------------------|
|-------------------------------------|
|-14-14-14-14-14-14-14-14-14-14-14-14-|
|-0--0--0--0--0--0--0--0--0--0--0--0--|
|-12-12-12-12-12-12-12-12-12-12-12-12-|
|-------------------------------------|

[Repeat these 4 bars until the end of the song.  Bullets Are Scene happens to be one of 
favorite Drop Dead, Gorgeous songs, as well as the whole Be Mine Valentine EP.]
Добавлено: 26.03.2012
Другие материалы по этой песне:

Страница создана 23.02.2012
http://primanota.ru/drop-dead-gorgeous/bullets-are-scene-chords.htm
Привет, Гость.
Предлагаем пройти революционный курс по гитаре.
Подарок от PrimaNota.Ru, забирай!