PrimaNota.ru - самый крупный в мире бесплатный архив песенных текстов, аккордов, табулатур и нот


Drop Dead Gorgeous - Are You Happy - текст песни, таба, видео

Регистрация Запомнить меня
Войти через:  Facebook Google Twitter Vk Yandex Mail.ru

Drop Dead Gorgeous - Are You Happy - текст песни, таба, видео

Печатать
Просмотров: 155
Drop Dead, Gorgeous – Are You Happy

This song is awesome, even though it is really short. Well i placed g1 before g2 so 
worry both guitars are there. Not sure of some parts that i tabbed out, but other than that 
sounds quite alright to me.

INTRO:

G1

|----------------------|
|----------------------|
|-9-9-7-7-9-9-10-10----|
|----------------------|
|-7-7-5-5-7-7- 8- 8----|
|----------------------|

(THIS FOLLOWING PART IS PLAYED TWICE)

|---------------||-------------------|
|---------------||-------------------|
|---------------||-9-9-7-7-9-9-10-10-|   X2
|-0-0-0-0--0—-0-||-------------------|
|-0-0-0-0--0--0-||-7-7-5-5-7-7- 8- 8-|
|-0-0-0-0--0—-0-||-------------------|
           .  .

|----------------------||---------------------------------------------|
|----------------------||------------------------------------------13-|
|-10-10-10-10-10-10-10-||-10-9-10-14-10-9-10-14-10-9-10-14-10-9-10----|
|----------------------||---------------------------------------------|
|- 8- 8- 8- 8- 8- 8- 8-||---------------------------------------------|
|----------------------||---------------------------------------------|

VERSE:

(DRUMS AND SINGER) THEN…

(THIS PART IS PLAYED TWICE)

|----------------------||-5--------5------||-5--------5--------|
|----------------------||-9B10-4---9B10---||-9B10-4---9B10-4---|
|----------------------||------7B8--------||------7B8------7B8-|
|-0-0-0--00-0-0--0-0-0-||-----------------||-------------------|
|-0-0-0--00-0-0--0-0-0-||-----------------||-------------------|
|-0-0-0--00-0-0--0-0-0-||-----------------||-------------------|
  . . .  .. . .  . . .

CHORUS:S

(THIS FOLLOWING PART IS PLAYED TWICE)

|---------------||-------------------|
|---------------||-------------------|
|---------------||-9-9-7-7-9-9-10-10-|  X2
|-0-0-0-0--0—-0-||-------------------|
|-0-0-0-0--0--0-||-7-7-5-5-7-7- 8- 8-|
|-0-0-0-0--0—-0-||-------------------|
           .  .

|----------------------||---------------------------------------------|
|----------------------||------------------------------------------13-|
|-10-10-10-10-10-10-10-||-10-9-10-14-10-9-10-14-10-9-10-14-10-9-10----|
|----------------------||---------------------------------------------|
|- 8- 8- 8- 8- 8- 8- 8-||---------------------------------------------|
|----------------------||---------------------------------------------|

BREAK-DOWN (SOMETHING LIKE THAT, NOT SURE WHAT TO CALL IT):

(PLAY THIS THREE TIMES)

|------------------------------|
|------------------------------|
|------3----------3--------3---|
|------7b8--------7b8------7b8-|
|-0-0------0-000------0-0------|
|-0-0------0-000------0-0------|
  . .      . ...      . .

THEN...

|--------------------------|
|--------------------------|
|------3-------------------|
|------7b8-----------------|
|-0-0------0-000--0-0------|
|-0-0------0-000--0-0------|
  . .      . ...  . .

|---|
|---|
|---|   (PLEASE JUST TRY TO FIGURE OUT THE STRUMMING)
|-0-|
|-0-|
|-0-|
  .


INTRO:

G2

|-------------------------|
|-------------------------|
|-12-12-10-10-12-12-14-14-|
|-------------------------|
|-10-10- 8- 8-10-10-12-12-|
|-------------------------|

(THIS FOLLOWING PART IS PLAYED TWICE)

|---------------||-------------------------||-----------------------|
|---------------||-------------------------||-----------------------|
|---------------||-12-12-10-10-12-12-14-14-||-12-12-10-10-9-9-10-10-| 
|-0-0-0-0--0--0-||-------------------------||-----------------------|
|-0-0-0-0--0--0-||-10-10- 8- 8-10-10-12-12-||-10-10- 8- 8-7-7- 8- 8-|
|-0-0-0-0--0--0-||-------------------------||-----------------------|
           .  .

|----------------------------|
|----------------------------|
|-10-10-10-10--X-10-10-10-10-|
|- 8- 8- 8- 8--X- 8- 8- 8- 8-| (JUST TRY TO FIGURE OUT THE STRUMMING)
|- 8- 8- 8- 8--X- 8- 8- 8- 8-|          (ITS QUITE HARD TO TAB OUT)
|- 8- 8- 8- 8--X- 8- 8- 8- 8-|

VERSE:

(DRUMS AND SINGER) THEN…

(THIS PART IS PLAYED TWICE)

|----------------------||-5--------5------||-5--------5--------|
|----------------------||-9B10-4---9B10---||-9B10-4---9B10-4---|
|----------------------||------7B8--------||------7B8------7B8-|
|-0-0-0--00-0-0--0-0-0-||-----------------||-------------------|
|-0-0-0--00-0-0--0-0-0-||-----------------||-------------------|
|-0-0-0--00-0-0--0-0-0-||-----------------||-------------------|
  . . .  .. . .  . . .


CHORUS:

(THIS FOLLOWING PART IS PLAYED TWICE)

|---------------||-------------------------||-----------------------|
|---------------||-------------------------||-----------------------|
|---------------||-12-12-10-10-12-12-14-14-||-12-12-10-10-9-9-10-10-|
|-0-0-0-0--0--0-||-------------------------||-----------------------|
|-0-0-0-0--0--0-||-10-10- 8- 8-10-10-12-12-||-10-10- 8- 8-7-7- 8- 8-|
|-0-0-0-0--0--0-||-------------------------||-----------------------|
           .  .

|----------------------------|
|----------------------------|
|-10-10-10-10--X-10-10-10-10-|
|- 8- 8- 8- 8--X- 8- 8- 8- 8-| (JUST TRY TO FIGURE OUT THE STRUMMING)
|- 8- 8- 8- 8--X- 8- 8- 8- 8-|          (ITS QUITE HARD TO TAB OUT)
|- 8- 8- 8- 8--X- 8- 8- 8- 8-|

BREAK-DOWN (SOMETHING LIKE THAT, NOT SURE WHAT TO CALL IT):

(PLAY THIS THREE TIMES)

|------------------------------|
|------------------------------|
|------3----------3--------3---|
|------7b8--------7b8------7b8-|
|-0-0------0-000------0-0------|
|-0-0------0-000------0-0------|
  . .      . ...      . .

|--------------------------|
|--------------------------|
|------3-------------------|
|------7b8-----------------|
|-0-0------0-000--0-0------|
|-0-0------0-000--0-0------|
  . .      . ...  . .

|---|
|---|
|---|   (PLEASE JUST TRY TO FIGURE OUT THE STRUMMING)
|-0-|
|-0-|
|-0-|
  .
Добавлено: 29.03.2012
Другие материалы по этой песне:
  • Аккорды и текст

Страница создана 29.03.2012
http://primanota.ru/drop-dead-gorgeous/are-you-happy-chords.htm
Привет, Гость.
Предлагаем пройти революционный курс по гитаре.
Подарок от PrimaNota.Ru, забирай!