PrimaNota.ru - самый крупный в мире бесплатный архив песенных текстов, аккордов, табулатур и нот


Drones - I Am The Supercargo - таба, видео

Регистрация Запомнить меня
Войти через:  Facebook Google Twitter Vk Yandex Mail.ru

Drones - I Am The Supercargo - таба, видео

Печатать
Просмотров: 116
THE DRONES

I AM THE SUPERCARGO

tabbed by dan

standard tuning, CAPO 2nd fret, notes relative to CAPO
NOTE: this is partly taken off a solo performance so it may not be exactly
like the album version, but this is how I play it.
play loosely throughout entire song

|--------------2---2--2--------0----2----2------|
|--------------3---3--3---------0---3--3---3----|
|-----0----0---2-0h2--2-0----0---0--2--------2--|
|---4----4-----0-----------4--------0-----------|
|---2----2-----------------2--------------------|
|-----------------------------------------------|
intro 

|-----------------0--------------0---------5--|
|--0h1---1b3r1-----3---------------0-------3--|
|--2----------------0---------0-----0---0--2--|
|--3------------------------4---------4-------|
|--3---3---------------2----2-----------------|
|---------------3------3----------------------|
intro continued

|---------------------|  play twice
|--1---------1--------|
|--2---------2--------|
|--2-----2---3---2----|
|--0-----2---3---2----|
|--------0---1---0----|
band enters   play around w/ chords, dont just strum

|-----0-----------------------------------|-------------------------------|
|--3----3----1------1-------1----0h1p0----|--0-0-0-0---------0h1-1b3r1-1--|
|--2------2--2----0---2----------------0--|----------2---0h2-----------0--|
|--0---------2-/4-------3------2----------|--0-0-0-0-0-3---------------2--|
|------------0-----------------2----------|--x-x-x-x-x-3---------------3--|
|-------------------1----------0----------|--3-3-3-3-3-1------------------|
into verse riff    x2                    then this

|--------------|
|------1h3--0--| then repeat all above parts for verses and choruses, after
|---0--0----0--| 2nd chorus make a lot of noise then play 'into verse riff' and 
|---2-------2--| subsequent parts. end on the 'end into verse' but play twice
|---3-------3--| with alterations and whammy bar.
|--------------|
end into verse

|--1---1------1------------------------------------------|
|--1---1------1--3--3-3-2-0----3-3-3-3-0-0--3--0--3--0---|
|--2---2------------------------------------0--0--0--0---|
|--3---3---3-----0--------------------------2--2--2------|
|--3-------3-----x--------------------------3--3--3------|
|--1-------1-----3-----------3---------------------------|
quiet part/ break (ruin born by sea....)   repeat as necessary play very loosely

thats about all, no point in tabbing guitar 2 as it doesn't do much any different than
rhythm guitar.
Добавлено: 30.06.2012
Другие материалы по этой песне:
  • Аккорды и текст

Страница создана 30.06.2012
http://primanota.ru/drones/i-am-the-supercargo-chords.htm
Привет, Гость.
Предлагаем пройти революционный курс по гитаре.
Подарок от PrimaNota.Ru, забирай!