PrimaNota.ru - самый крупный в мире бесплатный архив песенных текстов, аккордов, табулатур и нот


Droideka - Get Hyper - бас-таба, видео

Регистрация Запомнить меня
Войти через:  Facebook Google Twitter Vk Yandex Mail.ru

Droideka - Get Hyper - бас-таба, видео

Печатать
Просмотров: 265
Bass tab for droideka-get hyper

Intro(0-11)

|-----------------------------------|
|-----------14----14-----17----19---|
|-----------------------------------|
|-----------------------------------|
                                      (x2)
Riff 1 (13-22)

|--------------------------------------------------|
|--------------------------------------------------|
|-------------2------------------------------------|
|---0-0-0-0-----0--3--5---0-0-0-0--2-0-2-3---------|

|-----------------------------------------------------------------|
|-----------------------------------------------------------------|
|------------2--------------------2-------------------------------|
|---3-3-3-3----3--5--3---2-2-2-2----3--2--3--2--------------------|

|-----------------------------------------------------------------|
|-----------------------------------------------------------------|
|------------2----------------------------------------------------|
|---0-0-0-0----0--3--5----0-0-0-0--2-0-2-3------------------------|

|-----------------------------------------------------------------|
|-----------------------------------------------------------------|
|------------2----------------------------------------------------|
|---3-3-3-3----3--2-2-2-2-----------------------------------------|

Riff 2(22-44 Bass drop)

|----------------------------------------------------------------|
|----------------------------------------------------------------|
|--------2-------------------------2---------------2-------------|
|---0-0----3--0-0--2-0-2-3--3-3-3-3------3-2-2-2-2---3-2-3-2-----|
                                                                  (x3)
Riff 3 (45-67)

|------------------------------------4--------------4--------------|
|--------9----7--5-----4---4-5---5-5----5-7-5---4-4---5---4-5-4----|
|---7-7----7-------7-7---7-----------------------------------------|
|------------------------------------------------------------------|
                                                                    (x4)
Riff 4

|-------------------------------4-----------4--------------------------------------|
|-----------------------5-5-5-5---5-4-4-4-4---5-4-5-4------------------------------|
|---7\\--------------------------------------------------7\\-----------------------|
|-------0-0--0-2-0-2-3------------------------------------------0-0--0-2-0-2-3-----|

|-----------4--------------------------------------------------------------------------|
|---5-5-5-5---5-7-5--4-4-4-4-----------------------------------------------------------|
|-------------------------------7\\---------------------------------2------------------|
|---------------------------------------0-0--0-2-0-2-3-----3-3-3-3----3-5-3--2-2-2-2---|

|------------------------------------------------4----------------------|
|----------------------------------------5-5-5-5---5-7-5--4-4-4-4-------|
|---2--------------7\\--------------------------------------------------|
|-----3-2-3-2-----------0-0--0-2-0-2-3----------------------------------|

Song order
Intro
Riff one 
Riff two
Riff three
Riff four
Riff three
Riff three
intro

Rough tab but owell
https://soundcloud.com/droideka



Добавлено: 22.07.2013
Другие материалы по этой песне:

Страница создана 22.07.2013
http://primanota.ru/droideka/get-hyper-chords.htm
Привет, Гость.
Предлагаем пройти революционный курс по гитаре.
Подарок от PrimaNota.Ru, забирай!