PrimaNota.ru - самый крупный в мире бесплатный архив песенных текстов, аккордов, табулатур и нот


Driving East - All Alone - текст песни, таба, видео

Регистрация Запомнить меня
Войти через:  Facebook Google Twitter Vk Yandex Mail.ru

Driving East - All Alone - текст песни, таба, видео

Печатать
Просмотров: 127
Song: All Alone
Artist: Driving East - http://www.drivingeast.com/
Tabbed By: Brad Schantz (stupefy99@yahoo.com)

Tune down 1/2 step (Eb Ab Db Gb Bb Eb)


Intro/Chorus

e|----------------------------------------------------------|
B|----------------------------------------------------------|
G|--4--4----------------------------------------------------|
D|--4--4--2------6--9--4--4/6----4--6--2------6--6--4--4/6--|
A|--2--2--2------6--9--4--4/6----4--6--2------6--6--4--4/6--|
E|--------0------4--7--2--2/4----2--4--0------4--4--2--2/4--|

e|-------------------------------------------------------|
B|-------------------------------------------------------|
G|--4--4-------------------------------------------------|
D|--4--4--2------6--9--4--4/6----4--6--2------6--6--4----|
A|--2--2--2------6--9--4--4/6----4--6--2------6--6--4----|
E|--------0------4--7--2--2/4----2--4--0------4--4--2----|


Verse 1

e|-----------------------------------------------------------------|
B|-----------------------------------------------------------------|
G|-----------------------------------------------------------------|
D|---------------------------------4-4-4-4-4-4-4-4-4-4-4-4-4-4-4-4-|
A|-2-2-2-2-2-2-2-2-2-2-2-2-2-2-2-2-2-2-2-2-2-2-2-2-2-2-2-2-2-2-2-2-|
E|-0-0-0-0-0-0-0-0-0-0-0-0-0-0-0-0---------------------------------|
p.m...............................................................

e|-----------------------------------------------------------------|
B|-----------------------------------------------------------------|
G|-----------------------------------------------------------------|
D|-----------------------------------------------------------------|
A|-4-4-4-4-4-4-4-4-4-4-4-4-4-4-4-4-6-6-6-6-6-6-6-6-4-4-4-4-4-4-4-4-|
E|-2-2-2-2-2-2-2-2-2-2-2-2-2-2-2-2-4-4-4-4-4-4-4-4-2-2-2-2-2-2-2-2-|
p.m...............................................................


Pre-Chorus

e|------------------------------------------------------|
B|------------------------------------------------------|
G|------------------------------------------------------|
D|------2------2------2------2------4------4------4--4--|
A|------2------2------2------2------4------4------4--4--|
E|--0-0-0--0-0-0--0-0-0--0-0-0--2-2-2--2-2-2--2-2-2--2--|
p.m....    ...    ...    ...    ...    ...    ...    


Verse 2

e|----------------------------------------------------------|
B|----------------------------------------------------------|
G|----------------------------------4------4------4------4--|
D|------2------2------2------2------4------4------4------4--|
A|------2------2------2------2--2-2-2--2-2-2--2-2-2--2-2-2--|
E|--0-0-0--0-0-0--0-0-0--0-0-0------------------------------|
p.m....    ...    ...    ...    ...    ...    ...    ... 

e|----------------------------------------------------------|
B|----------------------------------------------------------|
G|----------------------------------------------------------|
D|------4------4------4------4------6------6------4------4--|
A|------4------4------4------4------6------6------4------4--|
E|--2-2-2--2-2-2--2-2-2--2-2-2--4-4-4--4-4-4--2-2-2--2-2-2--|
p.m....    ...    ...    ...    ...    ...    ...    ... 


Bridge

e|--------------------------------------------------|
B|--------------------------------------------------|
G|--------------------------------------------------|
D|--6--6--6--6--6--6--6--6--2--2--2--2--2--2--2--2--|
A|--6--6--6--6--6--6--6--6--2--2--2--2--2--2--2--2--|
E|--4--4--4--4--4--4--4--4--0--0--0--0--0--0--0--0--|

e|--------------------------------------------------|
B|--------------------------------------------------|
G|--4--4--4--4--4--4--4--4--------------------------|
D|--4--4--4--4--4--4--4--4--4--4--4--4--4--4--4--4--|
A|--2--2--2--2--2--2--2--2--4--4--4--4--4--4--4--4--|
E|--------------------------2--2--2--2--2--2--2--2--|


Solo (Chords same as Bridge)

e|---------------------------------------------------|
B|----------19--17--16h17p16-----------19--16h17p16--|
G|------16------------------------16-----------------|
D|--18------------------------18---------------------|
A|---------------------------------------------------|
E|---------------------------------------------------|

e|------------------------------------------------|
B|----------19--17--16h17p16--17--19--------------|
G|------16----------------------------16------18--|
D|--18--------------------------------------------|
A|------------------------------------------------|
E|------------------------------------------------|

e|-------------------------------------------------------------------------|
B|----------19--17--16h17p16-----------19--16h17p16----------19--16h17p16--|
G|------16------------------------16--------------------16-----------------|
D|--18------------------------18--------------------18---------------------|
A|-------------------------------------------------------------------------|
E|-------------------------------------------------------------------------|


Short Part After Solo

e|--------------------------|
B|--------------------------|
G|--------------------------|
D|--6--6--4------4--6--2----|
A|--6--6--4------4--6--2----|
E|--4--4--2------2--4--0----|
Добавлено: 25.05.2012
Другие материалы по этой песне:
  • Аккорды и текст

Страница создана 27.03.2012
http://primanota.ru/driving-east/all-alone-chords.htm
Привет, Гость.
Предлагаем пройти революционный курс по гитаре.
Подарок от PrimaNota.Ru, забирай!