PrimaNota.ru - самый крупный в мире бесплатный архив песенных текстов, аккордов, табулатур и нот


Drivin And Cryin - Honeysuckle Blue - аккорды и текст, таба, видео

Регистрация Запомнить меня
Войти через:  Facebook Google Twitter Vk Yandex Mail.ru

Drivin And Cryin - Honeysuckle Blue - аккорды и текст, таба, видео

Печатать
Просмотров: 100
Honeysuckle Blue
Drivin And Cryin


From: Steve Vetter 

Honeysuckle Blue - Drivin' n' Cryin'
from Mystery Road
tabbed by Steve Vetter [vetters@vax1.elon.edu]

The main riff is something like this:


  A                  G                  D              A
|-5--5---------------3--3---------------5--5-----------5--5---|
|-5--5---------------3--3---------------7--7-----------5--5---|
|-6--6--7-5----------4--4--5-3----------7--7--7-p-5----6--6---|
|-7--7------7-5-7-5--5--5------5-3-5-3--7--7--------7--7--7---|
|-7--7---------------5--5-------------- 5--5-----------7--7---|
|-5--5---------------3--3------------------------------5--5---|



A  G  D  A

A
Feel the ...
        G
and the ...
D
Blowing down ...
A
dying land  (from the booklet, the song is something different)

A
D'Agostino's late ....
  G
A boy ...
     D
With nothing ...
    A
his head to sky ....

Can you see ...

Running through these ....




  /--/--/--/--/--/--/--/--/--/--/--/--/--/--/--/--/--/--/-
  I  Steve Vetter                    I   I'm not the same                  I
    vetters@vax1.elon.edu           I        As I was long ago,            /
  I  vetters@sun0.elon.edu           I    I've learned some new things      I
  /  Elon College                    I        And I hope that it shows...  
  I  Alpha Kappa Psi                 I          -Neil Young  (Homefires)    I
  -/--/--/--/--/--/--/--/--/--/--/--/--/--/--/--/--/--/--/


Добавлено: 19.01.2014
Другие материалы по этой песне:
  • Аккорды и текст

Страница создана 18.07.2012
http://primanota.ru/drivin-and-cryin/honeysuckle-blue-chords.htm
Привет, Гость.
Предлагаем пройти революционный курс по гитаре.
Подарок от PrimaNota.Ru, забирай!