PrimaNota.ru - самый крупный в мире бесплатный архив песенных текстов, аккордов, табулатур и нот


Driver Eight - Getting This Thing To Go - таба, видео

Регистрация Запомнить меня
Войти через:  Facebook Google Twitter Vk Yandex Mail.ru

Driver Eight - Getting This Thing To Go - таба, видео

Печатать
Просмотров: 75
		   Song: Getting This Thing to go
Artist: Driver Eight
Album: Watermelon
Figured out by: Buser/Eric Pierson
Tabbed by: Eric Pierson (biff.the.riff@juno.com)


INTRO:
     C#5         C#5/A       G#sus       B
e|---------------------------------------2--2--2--2-
B|---------------------------------------4--4--4--4-
G|---6--6--6--6--6--6---6--6--6--6--6--6--4--4--4--4-    4x
D|---6--6--6--6--6--6--6--6--6--6--6--6--4--4--4--4-
A|---4--4--4--4--4--4--4--4--6--6--6--6--2--2--2--2-
E|---------------5--5--5--5--4--4--4--4--2--2--2--2-

VERSE:
           C#      C#/A    G#sus   B                     C#m    A second guitar
e|---------------------------------2-2-2-2-           e|--4--  strums this chord
B|---------------------------------4-4-4-4-           B|--5--  between "upside"
G|---------6-6-6-6-6-6-6-6-6-6-6-6-4-4-4-4-  2x       G|--6--  and "down", "worked"
D|---------6-6-6-6-6-6-6-6-6-6-6-6-4-4-4-4-           D|--6--  "out", etc.
A|---------4-4-4-4-4-4-4-4-6-6-6-6-2-2-2-2-           A|--4--
E|-----------------5-5-5-5-4-4-4-4-2-2-2-2-           E|--4--
  you're upside      down              you're all
         worked      out               its easier

     E                B2               A2
e|---0-0-0-0-0-0-0-0--2-2-2-2-2-2-2-2--0-0-0-0-0-0-0-0-0-0-0-0-0-0-
B|---0-0-0-0-0-0-0-0--2-2-2-2-2-2-2-2--0-0-0-0-0-0-0-0-0-0-0-0-0-0-
G|---1-1-1-1-1-1-1-1--4-4-4-4-4-4-4-4--2-2-2-2-2-2-2-2-2-2-2-2-2-2-
D|---2-2-2-2-2-2-2-2--4-4-4-4-4-4-4-4--2-2-2-2-2-2-2-2-2-2-2-2-2-2-
A|---2-2-2-2-2-2-2-2--2-2-2-2-2-2-2-2--0-0-0-0-0-0-0-0-0-0-0-0-0-0-
E|---0-0-0-0-0-0-0-0--2-2-2-2-2-2-2-2--0-0-0-0-0-0-0-0-0-0-0-0-0-0-
        to  see  it  when you're going down

            C#    C#/A  G#sus B          C#    C#/A  G#sus B
my mind has      sped,          one hundred    years ahead 

        E            B2                 A2
its easier to see it when you lose your head that's when I catch you on

CHORUS:
      E           B2          C#m
e|----0--0--0--0--2--2--2--2--4--4--4--4--4--4--4--4
B|----0--0--0--0--2--2--2--2--5--5--5--5--5--5--5--5
G|----1--1--1--1--4--4--4--4--6--6--6--6--6--6--6--6
D|----2--2--2--2--4--4--4--4--6--6--6--6--6--6--6--6
A|----2--2--2--2--2--2--2--2--4--4--4--4--4--4--4--4
E|----0--0--0--0--2--2--2--2--4--4--4--4--4--4--4--4
   the way to  feel                           that's when I catch you on 
   the way to  feel 	                      that's when I catch you on
   the way 
                      A2
e|--------------------0--0--0--0--0--0--0--0--0--0--0--0--0--0--0--0--
B|--------------------0--0--0--0--0--0--0--0--0--0--0--0--0--0--0--0--
G|--------------------2--2--2--2--2--2--2--2--2--2--2--2--2--2--2--2--
D|--------------------2--2--2--2--2--2--2--2--2--2--2--2--2--2--2--2--
A|--------------------0--0--0--0--0--0--0--0--0--0--0--0--0--0--0--0--
E|--------------------0--0--0--0--0--0--0--0--0--0--0--0--0--0--0--0--
that's when I make it my plans

        C#    C#/A  G#sus B         C#    C#/A  G#sus B
nothing new            like black and blue
        E            B2              A2
its easier to see it when I wait for you 

            C#    C#/A  G#sus B              C#    C#/A  G#sus B
it's full of holes,              these hands I fold

         E            B2             A2
it's easier to see it when I lose control


-- Chorus>--


BRIDGE:  (v=downstroke; ^=upstroke)
    B                                        C#
    v  ^    v  ^  v    v  ^  v    v  ^  v    v  ^    v  ^  v    v  ^  v    v  ^  v
e|--2--2----2--2--2----2--2--2----2--2--2----4--4----4--4--4----4--4--4----4--4--4-
B|--4--4----4--4--4----4--4--4----4--4--4----6--6----6--6--6----6--6--6----6--6--6-
G|--4--4----4--4--4----4--4--4----4--4--4----6--6----6--6--6----6--6--6----6--6--6-
D|--4--4----4--4--4----4--4--4----4--4--4----6--6----6--6--6----6--6--6----6--6--6-
A|--2--2----2--2--2----2--2--2----2--2--2----4--4----4--4--4----4--4--4----4--4--4-
E|--2--2----2--2--2----2--2--2----2--2--2----4--4----4--4--4----4--4--4----4--4--4-
                   you're a thing of beauty               when you see right through me

     A                                        B
     v  ^    v  ^  v    v  ^  v    v  ^  v    v  ^    v  ^  v    v  ^  v    v  ^  v
e|---0--0----0--0--0----0--0--0----0--0--0----2--2----2--2--2----2--2--2----2--2--2-
B|---2--2----2--2--2----2--2--2----2--2--2----4--4----4--4--4----4--4--4----4--4--4-
G|---2--2----2--2--2----2--2--2----2--2--2----4--4----4--4--4----4--4--4----4--4--4-
D|---2--2----2--2--2----2--2--2----2--2--2----4--4----4--4--4----4--4--4----4--4--4-
A|---0--0----0--0--0----0--0--0----0--0--0----2--2----2--2--2----2--2--2----2--2--2-
E|---0--0----0--0--0----0--0--0----0--0--0----2--2----2--2--2----2--2--2----2--2--2-
                 I     suppose  ,              if only I could get this thing to go


SOLO:  (rhythm plays chorus chords E-B2-C#m)

e|-------------------------------------------------12h14p12-------12---------
B|----9h10p9--------9----------------9-10-12----------------14------12-------
G|-----------11--------11------9-11------------------------------------------
D|---------------------------------------------------------------------------
A|---------------------------------------------------------------------------
E|---------------------------------------------------------------------------

e|---------------------------------------------------------------------------
B|----9h10p9-----------9-----------------------------------------------------
G|-----------11----------11------9-9-11-9-----------------9-----9h11p9-------
D|--------------------------------------------------9h11----11---------------
A|---------------------------------------------------------------------------
E|---------------------------------------------------------------------------

e|-------------------------------------------------12h14p12-------12---------
B|----9h10p9--------9----------------9-10-12----------------14------12-------
G|-----------11--------11------9-11------------------------------------------
D|---------------------------------------------------------------------------
A|---------------------------------------------------------------------------
E|---------------------------------------------------------------------------

e|--------12-----------------------------------------------------------------
B|----12------12--12----12------10-----9(hold)-------------------------------
G|---------------------------------------------------------------------------
D|---------------------------------------------------------------------------
A|---------------------------------------------------------------------------
E|---------------------------------------------------------------------------
"na-na  na-na  na-na"  part:

e|-------------------------------------------|-----------------------------------|
B|--9-9-10-9-10-9-----9---9-10-9-10-12-10-9--|---9-9-10-9-10-9-----9^(10)hold----|
G|-------------------------------------------|-----------------------------------|
D|-------------------------------------------|-----------------------------------|
A|-------------------------------------------|-----------------------------------|
E|-------------------------------------------|-----------------------------------|

e|-------------------------------------------|-----------------------------------|
B|--9-9-10-9-10-9-----9---9-10-9-10-12-10-9--|----9---7---9---7------------------|
G|-------------------------------------------|---------------------9-------------|
D|-------------------------------------------|-----------------------------------|
A|-------------------------------------------|-----------------------------------|
E|-------------------------------------------|-----------------------------------|


-- Chorus>-- 2x



     
Добавлено: 05.08.2013
Другие материалы по этой песне:
  • Аккорды и текст

Страница создана 05.08.2013
http://primanota.ru/driver-eight/getting-this-thing-to-go-chords.htm
Привет, Гость.
Предлагаем пройти революционный курс по гитаре.
Подарок от PrimaNota.Ru, забирай!