PrimaNota.ru - самый крупный в мире бесплатный архив песенных текстов, аккордов, табулатур и нот


Drive Like Jehu - Do You Compute - текст песни, бас-таба, видео

Регистрация Запомнить меня
Войти через:  Facebook Google Twitter Vk Yandex Mail.ru

Drive Like Jehu - Do You Compute - текст песни, бас-таба, видео

Печатать
Просмотров: 151
Уроки эстрадного вокала в Санкт-Петербурге
Авторы: Drive Like Jehu

Do You Compute - Drive Like Jehu

You should really try and learn this by ear instead of being lazy.

This is played almost exclusively throughout the song.
|--------------------------------||--------------------------------|
|---------------------5----------||--------------------------------|
|--------7-7-7-5--7--------5-----||--------7-7-7-5--7----3---------|
|0-------------------------------||0--------------------------3----|



At around 2:28 you get to do some hard root note stuff.
|--------------------------------||--------------------------------|
|--------------------------------||--------------------------------|
|3-------------------------------||--------------------------------|
|--------------------------------||3-------------------------------|

Then back to this twice.
|--------------------------------||--------------------------------|
|---------------------5----------||--------------------------------|
|--------7-7-7-5--7--------5-----||--------7-7-7-5--7----3---------|
|0-------------------------------||0--------------------------3----|

"As if you were put here to straighten us out..."
|--------------------------------||--------------------------------|
|--------------------------------||--------------------------------|
|3-------------------------------||--------------------------------|
|--------------------------------||3-------------------------------|

As soon as those lyrics finish you return to the original theme
|--------------------------------||--------------------------------|
|---------------------5----------||--------------------------------|
|--------7-7-7-5--7--------5-----||--------7-7-7-5--7----3---------|
|0-------------------------------||0--------------------------3----|

Some brief pauses in which I can't hear any bass. If you want to play along with the 
guitar, the root notes are mostly in and around that riff. Play around with it, have fun.
Добавлено: 09.09.2013
Вам также может быть интересно:
Другие материалы по этой песне:
  • Аккорды и текст

Страница создана 19.06.2012
http://primanota.ru/drive-like-jehu/do-you-compute-chords.htm
Привет, Гость.
Предлагаем пройти революционный курс по гитаре.
Подарок от PrimaNota.Ru, забирай!