PrimaNota.ru - самый крупный в мире бесплатный архив песенных текстов, аккордов, табулатур и нот


Dritte Wahl - Resolution Der Kommunarden - таба, видео

Регистрация Запомнить меня
Войти через:  Facebook Google Twitter Vk Yandex Mail.ru

Dritte Wahl - Resolution Der Kommunarden - таба, видео

Печатать
Просмотров: 115
Авторы музыки: Hanns Eisler
Авторы текста: Bertolt Brecht
Intro:

E|-------------------------------------------------------------|
B|-------------------------------------------------------------|
G|-----------------7-------2-----------------------------------|
D|-------5---------7-------2---------2-------------------------|     x1
A|—------5-2---2-3-5-----2-0-3-2-3-5-2-------------------------|
E|-3-3-5-3---5-------5-5-------------0-------------------------|

E|-------------------------------------------------------------|
B|-----------------------------------------------5-5-----------|
G|-------4-4---4-4-5-------4-5-5-4-5-5-7-4-----------7-5-4-5-4-|
D|-5-5-7-----7-------7-7-7-----------------5-5-5---------------|
A|-------------------------------------------------------------|
E|-------------------------------------------------------------|

E|-------------------------------------------------------------|
B|-------------------------------------------------------------|
G|---------4-4-4-----------------------------------------------|
D|-7-5-5-7-------7-5-4-----------------------------------------|     x2
A|---------------------7---------------------------------------|
E|-------------------------------------------------------------|

Strophe:

C                            A
In Erwägung unserer Schwäche machtet,
      C                  D       E
ihr Gesetze, die uns knechten sollen.
      C             A       B       G
Die Gesetze seien künftig nicht beachtet,
    B                    G                   E
in Erwägung, dass wir nicht mehr Knecht sein wollen

Refrain:

     G                       D
In Erwägung dass ihr uns dann eben,
      A                  E
mit Gewehren und Kanonen droht,
       C
haben wir beschlossen, nunmehr
  A                B               G       E
schlechtes Leben, mehr zu fürchten als den Tod.

Strophe:

C                                A
In Erwägung, dass wir hungrig bleiben,
      C                  D       E
wenn wir dulden, dass ihr uns bestehlt.
      C             A       B       G
Wollen wir mal feststellen, dass nur Fensterscheiben,
    B                    G           E
uns vom guten Brote trennen, das uns fehlt.

Refrain:

     G                       D
In Erwägung das ihr uns dann eben,
      A                  E
mit Gewehren und Kanonen droht,
       C
haben wir beschlossen, nunmehr
  A                B               G       E
schlechtes Leben, mehr zu fürchten als den Tod.

(E halten)

Bridge:

E|-------------------------------------------------------------|
B|-------------------------------------------------------------|
G|-----------------7-------2-----------------------------------|
D|-------5---------7-------2---------2-------------------------|     x1
A|—------5-2---2-3-5-----2-0-3-2-3-5-2-------------------------|
E|-3-3-5-3---5-------5-5-------------0-------------------------|

E|-------------------------------------------------------------|
B|-----------------------------------------------5-5-----------|
G|-------4-4---4-4-5-------4-5-5-4-5-5-7-4-----------7-5-4-5-4-|
D|-5-5-7-----7-------7-7-7-----------------5-5-5---------------|
A|-------------------------------------------------------------|
E|-------------------------------------------------------------|

E|-------------------------------------------------------------|
B|-------------------------------------------------------------|
G|---------4-4-4-----------------------------------------------|
D|-7-5-5-7-------7-5-4-----------------------------------------|     x2
A|---------------------7---------------------------------------|
E|-------------------------------------------------------------|

(Gitarre 2: G / D / A / E / C / A / B / G / B / G / E)

Strophe:
C                                A
In Erwägung, dass da Häuser stehen,
      C                  D       E
während ihr uns ohne Bleibe lasst,
       C
haben wir beschlossen, jetzt dort einzuziehen,
    B                    G           E
weil es uns in unseren Löchern nicht mehr passt.

Refrain:

     G                       D
In Erwägung das ihr uns dann eben,
      A                  E
mit Gewehren und Kanonen droht,
       C
haben wir beschlossen, nunmehr
  A                B               G       E
schlechtes Leben, mehr zu fürchten als den Tod.

Strophe:
C                            A
In Erwägung, dass wir der Regierung,
        C              D              E
was sie immer auch verspricht, nicht trauen,
       C
haben wir beschlossen, unter eigener Führung
      B             G          E
umso mehr ein gutes Leben aufzubauen.

Refrain:

     G                      D
In Erwägung, ihr hört auf Kanonen,
           A                       E
andere Sprachen könnt ihr nicht verstehen,
        C                     A
müssen wir dann eben, ja das wird sich lohnen
 B            G  Fis  E
die Kanonen auf euch drehen.

Solo:

Grundtöne: C A E G C A E

dann > G D A E C A B G E (teilweise gedämpft)

Refrain:

     G                       D
In Erwägung das ihr uns dann eben,
      A                  E
mit Gewehren und Kanonen droht,
       C
haben wir beschlossen, nunmehr
  A                B               G       E
schlechtes Leben, mehr zu fürchten als den Tod.
Добавлено: 31.05.2012
Другие материалы по этой песне:

Страница создана 31.05.2012
http://primanota.ru/dritte-wahl/resolution-der-kommunarden-chords.htm
Привет, Гость.
Предлагаем пройти революционный курс по гитаре.
Подарок от PrimaNota.Ru, забирай!