PrimaNota.ru - самый крупный в мире бесплатный архив песенных текстов, аккордов, табулатур и нот


Dritte Wahl - Auf Der Flucht - таба, видео

Регистрация Запомнить меня
Войти через:  Facebook Google Twitter Vk Yandex Mail.ru

Dritte Wahl - Auf Der Flucht - таба, видео

Печатать
Просмотров: 125
Уроки эстрадного вокала в Санкт-Петербурге
-------------------------------------------------------------------------------
                             Auf der Flucht - Dritte Wahl
-------------------------------------------------------------------------------
Tabbed by: Jarom!r
Email: lionfalcon@web.de

Tuning: Standart 


intro:

guitar 1
e|---------------------------------------------------------------------------|
B|---------------------------------------------------------------------------|
G|---------------------------------------------------------------------------|
D|-5--5-5--7-5---------------------------------------------------------------|
A|-------------7--8--7-8--7--------------------------------------------------|
E|--------------------------8------------------------------------------------|

guitar 2 (verse)
   Cadd3             C                 F                 C     
e|----------4-----------------0-----------------1------------------0---------||
B|-------1-----1-----------1-----1-----------1-----1------------1-----1------||
G|----0-----------0-----0-----------0-----2-----------2------0-----------0--o||
D|-------------------------------------3------------------------------------o||
A|-3-----------------3-----------------------------------3-------------------||
E|---------------------------------------------------------------------------||


dieses pattern wird waehrend vers I & II fortgesetzt
this pattern is repeated during the verses I & II




Vers I

Cadd3             C           F                 C
Langsam graut der Morgen, die Nacht sie will es so 
Du bist auf dem Weg ins Land, der Freiheit irgendwo 
Es war ein schwerer Abschied, doch war uns lang bewußt 
Es kommt einmal der Tag, an dem du weiterziehen mußt 

Refrain:
Auch Wenn ich jetzt traurig bin, denke ich daran 
Was werden wir erst feiern, wenn ich nachkomme irgendwann

Vers II:

Viele gute Tage haben wir gesehen 
Manche schwere Stunde mussten wir bestehen 
Es bleibt nurnoch zu sagen, es war' ne schoene Zeit 
Hab Dank und gute Reise, bring dich in sicherheit 

Refrain:
F                   G            Cadd3       C
Auch Wenn ich jetzt traurig bin, denke ich daran 
Was werden wir erst feiern, wenn ich nachkomme irgendwann


[Interlude; hier wird die melodie aus dem Intro gespielt]


Wiederholung Vers I:

Langsam graut der Morgen, der Tag er will es so 
Du bist auf dem Weg ins Land, der Freiheit irgendwo


_____________________________________________________________________________________________

beim refrain wird das gleiche schlagmuster verwendet wie bei der akkordfolge in den versen. 
ich muss allerdings dazu sagen, dass ich mir beim refrain nicht sicher bin ob die akkorde 

passen. daher wuerde ich mich an dieser stelle ueber verbesserungsvorschlaege an meine email 

adresse freuen: lionfalcon@web.de

during the refrain the same pattern as in the verses is used. but i'll have to add that i'm not 

quite sure if the chords match a hundret percent, so it would be nice if you guys would send 

suggestions to my email address: lionfalcon@web.de
Добавлено: 19.06.2012
Другие материалы по этой песне:
  • Аккорды и текст

Страница создана 19.06.2012
http://primanota.ru/dritte-wahl/auf-der-flucht-chords.htm
Привет, Гость.
Предлагаем пройти революционный курс по гитаре.
Подарок от PrimaNota.Ru, забирай!