PrimaNota.ru - самый крупный в мире бесплатный архив песенных текстов, аккордов, табулатур и нот


Drist - The Scalpal - таба, видео

Регистрация Запомнить меня
Войти через:  Facebook Google Twitter Vk Yandex Mail.ru

Drist - The Scalpal - таба, видео

Печатать
Просмотров: 141
----------------------------------------------------------------------------
                             drist the scalpal
--------------------------------------------------------------------------
Tabbed by:screamingjarryd
Email:jay_sargent@hotmail.com

Tuning:Dadgbe
guitar 1
e|--------------------------------------------------------------------------|
B|--------------------------------------------------------------------------|
G|--------------------------------8-8-8-8-8-8-8-8-8-5-5-5-7-7-7-------------|
D|5-5-5-5-5-5-5-5-5-5-5-5-7-7-5-5-8-8-8-8-8-8-8-8-8-5-5-5-7-7-75-5-5-5-5-5--|
A|5-5-5-5-5-5-5-5-5-5-5-5-5-5-5-5-6-6-6-6-6-6-6-6-6-3-3-3-5-5-55-5-5-5-5-5--|
D|5-5-5-5-5-5-5-5-5-5-5-5-5-5-5-5------------------------------5-5-5-5-5-5--|

e|--------------------------------------------------------------------------|
B|--------------------------------------------------------------------------|
G|--------------------------------5-5-5-7-7-7-------------------------------|
D|5-5-5-5-5-5-5-5-5-5-1-1-1-1-1-1-5-5-5-7-7-7---play2X----------------------|
A|5-5-5-5-5-5-5-5-5-5-1-1-1-1-1-1-3-3-3-5-5-5-------------------------------|
D|5-5-5-5-5-5-5-5-5-5-1-1-1-1-1-1-------------------------------------------|
guitar 2
e|--------------------------------------------------------------------------|
B|--------------------------------------------------------------------------|
G|------------------------------------12-12-12-12---------------------------|
D|12-12-12-12-12-12-12-12-10-10-10-10-------------14-14-14-14-14-14-14-14---|
A|--------------------------------------------------------------------------|
D|--------------------------------------------------------------------------|

e|--------------------------------------------------------------------------|
B|--------------------------------------------------------------------------|
G|------------15-15-15-15---------------------------------------------------|
D|12-12-12-12---------------------------------------------------------------|
A|--------------------------------------------------------------------------|
D|--------------------------------------------------------------------------|
guitar 3
e|--------------------------------------------------------------------------|
B|--------------------------------------------------------------------------|
G|--------------------------------------------------------------------------|
D|--------------------------------------------------------------------------|
A|3-5-3-6-5-----------5-6-5-8-6-----play2x----------------------------------|
D|--------------------------------------------------------------------------|

guitar 1
e|---------------------------------------------------------------------------|
B|---------------------------------------------------------------------------|
G|14-14-14-12-12-12-----------------------------14-14-14-12-12-12------------|
D|------------------15-15-15-12-12-12-----------------------------15-15-15---|
A|-----------------------------------15-15-12-12-----------------------------|
D|---------------------------------------------------------------------------|

e|--------------------------------------------------------------------------|
B|------------13------------------------------------------------------------|
G|---------14----14-12-12-12-15-12-12-12-15-12-12-15-12-14------------------|
D|12-12-12------------------------------------------------------------------|
A|--------------------------------------------------------------------------|
D|--------------------------------------------------------------------------|

verse guitar 1
e|---------------------------------------------------------------------------------------|
B|---------------------------------------------------------------------------------------|
G|------------------------7-7---------7-----7--------------------------------------------|
D|5-5---------5-----5-----7-7---------7-----7-----8-8---------8-----8--------------------|
A|5-5---------5-----5-----5-5-5-5-5-5-5-5-5-5-5-5-8-8-8-8-8-8-8-8-8-8-8-8----------------|
D|5-5-5-5-5-5-5-5-5-5-5-5-------------------------8-8-8-8-8-8-8-8-8-8-8-8----------------|

e|--------------------------------------------------------------------------|
B|--------------------------------------------------------------------------|
G|7-7---------7-----7-----8-8---------8-----8-----10-10-10------------------|
D|7-7---------7-----7-----8-8---------8-----8-----10-10-10-8-8--------------|
A|5-5-5-5-5-5-5-5-5-5-5-5-6-6-6-6-6-6-6-6-6-6-6-6-8--8--8--8-8--------------|
D|---------------------------------------------------------8-8-8-8-8-8------|

e|--------------------------------------------------------------------------|
B|--------------------------------------------------------------------------|
G|--------------------------------------------------------------------------|
D|7-7---------5-5---------3-3---------1-1-1---1-1---1-1---------------------|
A|7-7---------5-5---------3-3---------1-1-1---1-1---1-1---------------------|
D|7-7-7-7-7-7-5-5-5-5-5-5-3-3-3-3-3-3-1-1-1-3-1-1-1-1-1-0-1-0---------------|

guitar 1 chorus
e|--------------------------------------------------------------------------|
B|--------------------------------------------------------------------------|
G|--------------------------------8-8-8-8-8-8-8-8-8-5-5-5-7-7-7-------------|
D|5-5-5-5-5-5-5-5-5-5-5-5-7-7-5-5-8-8-8-8-8-8-8-8-8-5-5-5-7-7-7-5-5-5-5-5-5-|
A|5-5-5-5-5-5-5-5-5-5-5-5-5-5-5-5-6-6-6-6-6-6-6-6-6-3-3-3-5-5-5-5-5-5-5-5-5-|
D|5-5-5-5-5-5-5-5-5-5-5-5-5-5-5-5-------------------------------5-5-5-5-5-5-|

e|--------------------------------------------------------------------------|
B|--------------------------------------------------------------------------|
G|--------------------------------5-5-5-7-7-7-------------------------------|
D|5-5-5-5-5-5-5-5-5-5-1-1-1-1-1-1-5-5-5-7-7-7---play2X----------------------|
A|5-5-5-5-5-5-5-5-5-5-1-1-1-1-1-1-3-3-3-5-5-5-------------------------------|
D|5-5-5-5-5-5-5-5-5-5-1-1-1-1-1-1-------------------------------------------|
guitar 2
e|--------------------------------------------------------------------------|
B|--------------------------------------------------------------------------|
G|--------------------------------------------------------------------------|
D|--------------------------------------------------------------------------|
A|5-6-8-6-5-3-1-play 2x-----------------------------------------------------|
D|--------------------------------------------------------------------------|

verse guitar 1
e|---------------------------------------------------------------------------------------|
B|---------------------------------------------------------------------------------------|
G|------------------------7-7---------7-----7--------------------------------------------|
D|5-5---------5-----5-----7-7---------7-----7-----8-8---------8-----8--------------------|
A|5-5---------5-----5-----5-5-5-5-5-5-5-5-5-5-5-5-8-8-8-8-8-8-8-8-8-8-8-8----------------|
D|5-5-5-5-5-5-5-5-5-5-5-5-------------------------8-8-8-8-8-8-8-8-8-8-8-8----------------|

e|--------------------------------------------------------------------------|
B|--------------------------------------------------------------------------|
G|7-7---------7-----7-----8-8---------8-----8-----10-10-10------------------|
D|7-7---------7-----7-----8-8---------8-----8-----10-10-10-8-8--------------|
A|5-5-5-5-5-5-5-5-5-5-5-5-6-6-6-6-6-6-6-6-6-6-6-6-8--8--8--8-8--------------|
D|---------------------------------------------------------8-8-8-8-8-8------|

e|--------------------------------------------------------------------------|
B|--------------------------------------------------------------------------|
G|--------------------------------------------------------------------------|
D|7-7---------5-5---------3-3---------1-1-1---1-1---1-1---------------------|
A|7-7---------5-5---------3-3---------1-1-1---1-1---1-1---------------------|
D|7-7-7-7-7-7-5-5-5-5-5-5-3-3-3-3-3-3-1-1-1-3-1-1-1-1-1-0-1-0---------------|
while second verse guitar 2
e|--------------------------------------------------------------------------|
B|--------------------------------------------------------------------------|
G|--------------------------------------------------------------------------|
D|--------------------------------------------------------------------------|
A|-8-------------6--------------5-------------6------------8------------6---|
D|--------------------------------------------------------------------------|

e|--------------------------------------------------------------------------|
B|--------------------------------------------------------------------------|
G|--------------------------------------------------------------------------|
D|--------------------------------------------------------------------------|
A|----------6-------------8-------------6----------------5-------------3----|
D|--------------------------------------------------------------------------|

guitar 1 chorus
e|--------------------------------------------------------------------------|
B|--------------------------------------------------------------------------|
G|--------------------------------8-8-8-8-8-8-8-8-8-5-5-5-7-7-7-------------|
D|5-5-5-5-5-5-5-5-5-5-5-5-7-7-5-5-8-8-8-8-8-8-8-8-8-5-5-5-7-7-7-5-5-5-5-5-5-|
A|5-5-5-5-5-5-5-5-5-5-5-5-5-5-5-5-6-6-6-6-6-6-6-6-6-3-3-3-5-5-5-5-5-5-5-5-5-|
D|5-5-5-5-5-5-5-5-5-5-5-5-5-5-5-5-------------------------------5-5-5-5-5-5-|

e|--------------------------------------------------------------------------|
B|--------------------------------------------------------------------------|
G|--------------------------------5-5-5-7-7-7-------------------------------|
D|5-5-5-5-5-5-5-5-5-5-1-1-1-1-1-1-5-5-5-7-7-7---play2X----------------------|
A|5-5-5-5-5-5-5-5-5-5-1-1-1-1-1-1-3-3-3-5-5-5-------------------------------|
D|5-5-5-5-5-5-5-5-5-5-1-1-1-1-1-1-------------------------------------------|
guitar 2
e|--------------------------------------------------------------------------|
B|--------------------------------------------------------------------------|
G|--------------------------------------------------------------------------|
D|--------------------------------------------------------------------------|
A|5-6-8-6-5-3-1-play 2x-----------------------------------------------------|
D|--------------------------------------------------------------------------|

e|--------------------------------------------------------------------------|
B|--------------------------------------------------------------------------|
G|--------------------------------------------------------------------------|
D|--------1-1-1-1-1-6-3----------------------------------------5---5-3------|
A|--------1-1-1-1-1------3\9/6--6-6-3-3-4-3-4-3-4-3-4----3-4-3---3----------|
D|1-1-1-1-1-1-1-1-1---------------------------------------------------------|
guitar 3
e|--------------------------------------------------------------------------|
B|--------------------------------------------------------------------------|
G|--------------------------------------------------------------------------|
D|--------------------------------------------------------------------------|
A|-----------------------------9/6-----6/3----------------------------------|
D|--------------------------------------------------------------------------|
guitar 2
e|--------------------------------------------------------------------------|
B|--------------------------------------------------------------------------|
G|---------------------------------------1-1-1-1-1-----1--------------------|
D|1-1-1-1-1-----1----3-3-3-3-3-----3-----1-1-1-1-3-----1----1-1-1-1-1-1-1-1-|
A|1-1-1-1-3-----1----3-3-3-3-5-----3-----1-1-1-1-3-----1----3-3-3-3-3-3-3-3-|
D|1-1-1-1-3-----1----3-3-3-3-5-----3------------------------3-3-3-3-3-3-3-3-|

e|--------------------------------------------------------------------------|
B|--------------------------------------------------------------------------|
G|--------------------------------------------------------------------------|
D|3-3-3-3-3-3-3-3-----------------------------------------------------------|
A|5-5-5-5-5-5-5-5-----------------------------------------------------------|
D|5-5-5-5-5-5-5-5-----------------------------------------------------------|

guitar 2
e|--------------------------------------------------------------------------|
B|--------------------------------------------------------------------------|
G|--------------------------------------------------------------------------|
D|--------------------------------------------------------------------------|
A|5-6-5-8-6-5 play 2x ---------5-6-5-8-10-12--------------------------------|
D|--------------------------------------------------------------------------|

guitar 1 chorus
e|--------------------------------------------------------------------------|
B|--------------------------------------------------------------------------|
G|--------------------------------8-8-8-8-8-8-8-8-8-5-5-5-7-7-7-------------|
D|5-5-5-5-5-5-5-5-5-5-5-5-7-7-5-5-8-8-8-8-8-8-8-8-8-5-5-5-7-7-7-5-5-5-5-5-5-|
A|5-5-5-5-5-5-5-5-5-5-5-5-5-5-5-5-6-6-6-6-6-6-6-6-6-3-3-3-5-5-5-5-5-5-5-5-5-|
D|5-5-5-5-5-5-5-5-5-5-5-5-5-5-5-5-------------------------------5-5-5-5-5-5-|

e|--------------------------------------------------------------------------|
B|--------------------------------------------------------------------------|
G|--------------------------------5-5-5-7-7-7-------------------------------|
D|5-5-5-5-5-5-5-5-5-5-1-1-1-1-1-1-5-5-5-7-7-7---play2X----------------------|
A|5-5-5-5-5-5-5-5-5-5-1-1-1-1-1-1-3-3-3-5-5-5-------------------------------|
D|5-5-5-5-5-5-5-5-5-5-1-1-1-1-1-1-------------------------------------------|
guitar 2
e|--------------------------------------------------------------------------|
B|--------------------------------------------------------------------------|
G|--------------------------------------------------------------------------|
D|--------------------------------------------------------------------------|
A|5-6-8-6-5-3-1-play 2x-----------------------------------------------------|
D|--------------------------------------------------------------------------|

guitar 1 outro
e|---------------------------------------------------------------------------|
B|---------------------------------------------------------------------------|
G|14-14-14-12-12-12-----------------------------14-14-14-12-12-12------------|
D|------------------15-15-15-12-12-12-----------------------------15-15-15---|
A|-----------------------------------15-15-12-12-----------------------------|
D|---------------------------------------------------------------------------|

e|--------------------------------------------------------------------------|
B|------------13------------------------------------------------------------|
G|---------14----14-12-12-12-15-12-12-12-15-12-12-15-12-14------------------|
D|12-12-12-------------------------------------------------5-5--------------|
A|---------------------------------------------------------5-5--------------|
D|---------------------------------------------------------5-5--------------|


| /  slide up
| \  slide down
| h  hammer-on
| p  pull-off
| ~  vibrato
| +  harmonic
| x  Mute note
===============================================================================
Добавлено: 16.06.2012
Другие материалы по этой песне:
  • Аккорды и текст

Страница создана 16.06.2012
http://primanota.ru/drist/the-scalpal-chords.htm
Привет, Гость.
Предлагаем пройти революционный курс по гитаре.
Подарок от PrimaNota.Ru, забирай!