PrimaNota.ru - самый крупный в мире бесплатный архив песенных текстов, аккордов, табулатур и нот


Drist - Fallen - таба, бас-таба, видео

Регистрация Запомнить меня
Войти через:  Facebook Google Twitter Vk Yandex Mail.ru

Drist - Fallen - таба, бас-таба, видео

Печатать
Просмотров: 219
Drist - Fallen

Song: Fallen
Artist: Drist
Albulm: Bitter Halo
Tunning: Dropped D (DADGBE)
Tabbed by:Zeroisgreatman

Intro/Pre-Chorus:
"And there's no Time to praise..."
e|---------------------------------------------------|
B|---------------------------------------------------|
G|-------------------5-5-5-5-5-5-10-10-10-10-10-10---|
D|-------------------x-x-x-x-x-x--x--x--x--x--x--x---|
A|-3-----3-----3-----3-3-3-3-3-3--8--8--8--8--8--8---|
D|-3-0-0-3-0-0-3-0-0---------------------------------|
     
Verse:
e|--------------------------------------------|
B|--------------------------------------------|
G|--------------------------------------------|
D|--------------------------------------------|
A|-3-----3-----3-5-6--3-----3-----3-6-6-----0-|
D|-3-0-0-3-0-0-3-5-6--3-0-0-3-0-0-3-5-6-0-0-0-|
     . .   . . . . .    . .   . . . . . . . 

Chorus:
"I've Fallen, I've Fallen..."
e|------------------------------------------------------------------|
B|------------------------------------------------------------------|
G|------------------------------------------------------------------|
D|------------------------------------------------------------------|
A|-0-0-0-0-0-0-0-0-0-0-0-0-0-0-0--5-5-5-5-5-5-5-5-5-5-5-5-5-5-5-5-5-|
D|-0-0-0-0-0-0-0-0-0-0-0-0-0-0-0--5-5-5-5-5-5-5-5-5-5-5-5-5-5-5-5-5-|

e|------------------------------------------------------------------|
B|------------------------------------------------------------------|
G|------------------------------------------------------------------|
D|-3-3-3-3-3-3-3-3-3-3-3-3-3-3-3--5-5-5-5-5-5-5-5-5-5-5-5-5-5-5-5-5-|
A|-1-1-1-1-1-1-1-1-1-1-1-1-1-1-1--3-3-3-3-3-3-3-3-3-3-3-3-3-3-3-3-3-|
D|------------------------------------------------------------------|

Outro:
e|---------------------------|
B|---------------------------|
G|-------------5~------------|
D|-----7~--3-3-3~------5~--0-|
A|-5-5-5~--1-1-1~--3-3-3~--0-|
D|-5-5-5~----------3-3-3~--0-|
Добавлено: 21.06.2012
Другие материалы по этой песне:

Страница создана 06.03.2012
http://primanota.ru/drist/fallen-chords.htm
Привет, Гость.
Предлагаем пройти революционный курс по гитаре.
Подарок от PrimaNota.Ru, забирай!