PrimaNota.ru - самый крупный в мире бесплатный архив песенных текстов, аккордов, табулатур и нот


Drist - Decontrol - аккорды и текст, таба, бас-таба, видео

Регистрация Запомнить меня
Войти через:  Facebook Google Twitter Vk Yandex Mail.ru

Drist - Decontrol - аккорды и текст, таба, бас-таба, видео

Печатать
Просмотров: 201
Decontrol
Drist
Intro:    D  F  Bb C  Bb C Bb D  F  Bb  C
       e|----------------------------------|
       B|----------------------------------|
       G|-7~----3~-5~-3--5-3--7~----3~--5~-|
       D|-7~-3~-3~-5~-3--5-3--7~-3~-3~--5~-|
       A|-5~-3~-1~-3~-1--3-1--5~-3~-1~--3~-|
       E|----1~------------------1~--------|

Pre-Verse:    D  |---P.M.----| F                D  |---P.M.----| F G A C D
           e|--------------------------------------------------------------|
           B|--------------------------------------------------------------|
           G|-7-77777777777777------------------7-77777777777777-------5-7-| 
           D|-7-77777777777777-3-xxxxxx33xx33xx-7-77777777777777-3-5-7-5-7-|
           A|-5-55555555555555-3-xxxxxx33xx33xx-5-55555555555555-3-5-7-3-5-|
           E|------------------1-xxxxxx11xx11xx------------------1-3-5-----|

Verse:    D                F                D                 F G A C D
       e|---------------------------------------------------------------|
       B|---------------------------------------------------------------|
       G|-7-77777777777777------------------7-77777777777777--------5-7-| X2
       D|-7-77777777777777-3-33333333333333-7-77777777777777--3-5-7-5-7-|
       A|-5-55555555555555-3-33333333333333-5-55555555555555--3-5-7-3-5-|
       E|------------------1-11111111111111-------------------1-3-5-----|

            D               F           
            This is a final sign of what we cannot take,

            D                   F   G       A  C
            You forced a bitter end to this story;

            D                     F                                  D
            The walls are closing down now to this place in which we live,

                                 F         G      A  C
            So say your last goodbyes, but not to me cause...

Pre-Chorus:    D
            e|----|
            B|----|
            G|-7~-|
            D|-7~-|
            A|-5~-|
            E|----|

            D
            This separation will ex-

           B  C  G  Bb B  C  G  D  B  C              B  C  G  D
Chorus: e|-------------------------------------------------------|
        B|-------------------------------------------------------|
        G|-4~-5~----3~-4~-5~----7~-4~-5~-------------4~-5~----7~-|
        D|-4~-5~-5~-3~-4~-5~-5~-7~-4~-5~-----4-----5-4~-5~-5~-7~-|
        A|-2~-3~-5~-1~-2~-3~-5~-5~-2~-3~---4-----5---2~-3~-5~-5~-|
        E|-------3~----------3~----------2-----3-----------3~----|

           B               C         G           Bb               B         C        G         D
           plode! A starry sea, awakening a fascination with this old style sense of right and wrong...

           B                 C                                              B      C      G      D
           What's wrong with me? It's hard to speak when it's all about the way we hold a gun at our own mouths.

Pre-Verse:    D  |---P.M.----| F                D  |---P.M.----| F G A C D
           e|--------------------------------------------------------------|
           B|--------------------------------------------------------------|
           G|-7-77777777777777------------------7-77777777777777-------5-7-|
           D|-7-77777777777777-3-xxxxxx33xx33xx-7-77777777777777-3-5-7-5-7-|
           A|-5-55555555555555-3-xxxxxx33xx33xx-5-55555555555555-3-5-7-3-5-|
           E|------------------1-xxxxxx11xx11xx------------------1-3-5-----|

Verse:    D
       e|--------------------------------------------------------------|
       B|--------------------------------------------------------------|
       G|-7-xxxxxxxxxxxxxx------------------x-xxxxxxxxxxxxxx-------x-x-|
       D|-7-xxxxxxxxxxxxxx-x-xxxxxxxxxxxxxx-x-xxxxxxxxxxxxxx-x-x-x-x-x-|
       A|-5-xxxxxxxxxxxxxx-x-xxxxxxxxxxxxxx-x-xxxxxxxxxxxxxx-x-x-x-x-x-|
       E|------------------x-xxxxxxxxxxxxxx------------------x-x-x-----|

          D
          A fatal blinding sight, that's the price I pay for looking through the sun for a change.

          D                F                D                F G A C D
       e|--------------------------------------------------------------|
       B|--------------------------------------------------------------|
       G|-7-77777777777777------------------7-77777777777777-------5-7-|
       D|-7-77777777777777-3-33333333333333-7-77777777777777-3-5-7-5-7-|
       A|-5-55555555555555-3-33333333333333-5-55555555555555-3-5-7-3-5-|
       E|------------------1-11111111111111------------------1-3-5-----|

          D                     F                 D                      F     G  A C
          The walls are closing down, and eventually we say our last goodbyes, we see

Pre-Chorus:    D
            e|----|
            B|----|
            G|-7~-|
            D|-7~-|
            A|-5~-|
            E|----|

               D
               This separation will ex-

Chorus:    B  C  G  Bb B  C  G  D  B  C              B  C  G  D
        e|-------------------------------------------------------|
        B|-------------------------------------------------------|
        G|-4~-5~----3~-4~-5~----7~-4~-5~-------------4~-5~----7~-|
        D|-4~-5~-5~-3~-4~-5~-5~-7~-4~-5~-----4-----5-4~-5~-5~-7~-|
        A|-2~-3~-5~-1~-2~-3~-5~-5~-2~-3~---4-----5---2~-3~-5~-5~-|
        E|-------3~----------3~----------2-----3-----------3~----|

           B               C         G           Bb               B         C        G         D
           plode! A starry sea, awakening a fascination with this old style sense of right and wrong...

           B                 C                                              B      C      G      D
           What's wrong with me? It's hard to speak when it's all about the way we hold a gun at our own mouths.

Solo, part 1 (with screech vocals and start of solo): N.C.
      
Solo, part 2 (band joins in):    D                F                G                Bb          C
                              e|---------------------------------------------------------------------------|
                              B|---------------------------------------------------------------------------|
                              G|-7-77777777777777-----------------------------------3--33333333-5-55555555-| X2
                              D|-7-77777777777777-3-33333333333333-5-55555555555555-3--33333333-5-55555555-|
                              A|-5-55555555555555-3-33333333333333-5-55555555555555-1--11111111-3-33333333-|
                              E|------------------1-11111111111111-3-33333333333333------------------------|

Bridge: e|------------------------------------------------|
        B|------------------------------------------------|
        G|------------------------------------------------|
        D|-5-5-8-7----------------5-5-8-7---------------5-|
        A|------------------------------------------------|
        E|---------8-7-5-7-8-7-5-7--------8-7-5-7-8-7-5---|

Pre-Chorus:    D
            e|----|
            B|----|
            G|-7~-|
            D|-7~-|
            A|-5~-|
            E|----|

               D
               This separation will ex-

Chorus:    B  C  G  Bb B  C  G  D  B  C              B  C  G  D
        e|-------------------------------------------------------|
        B|-------------------------------------------------------|
        G|-4~-5~----3~-4~-5~----7~-4~-5~-------------4~-5~----7~-|
        D|-4~-5~-5~-3~-4~-5~-5~-7~-4~-5~-----4-----5-4~-5~-5~-7~-|
        A|-2~-3~-5~-1~-2~-3~-5~-5~-2~-3~---4-----5---2~-3~-5~-5~-|
        E|-------3~----------3~----------2-----3-----------3~----|

           B               C         G           Bb               B         C        G         D
           plode! A starry sea, awakening a fascination with this old style sense of right and wrong...

           B                 C                                              B      C      G      D
           What's wrong with me? It's hard to speak when it's all about the way we hold a gun at our own mouths.

Outro:     B  C  G  Bb B  C  G  D  B  C              B  C  G  D
        e|-------------------------------------------------------|
        B|-------------------------------------------------------|
        G|-4~-5~----3~-4~-5~----7~-4~-5~-------------4~-5~----7~-|
        D|-4~-5~-5~-3~-4~-5~-5~-7~-4~-5~-----4-----5-4~-5~-5~-7~-|
        A|-2~-3~-5~-1~-2~-3~-5~-5~-2~-3~---4-----5---2~-3~-5~-5~-|
        E|-------3~----------3~----------2-----3-----------3~----|

           B  C  G    Bb      B          C      G       D       B          C   
                   In our own mouths, we hold a gun. In our own mouths, we hold a gun.

                                                B       C       G          D
                   In our own mouths, we hold a gun. In our own mouths, we hold a gun.

           B  B  B  B
        e|--------------------------|
        B|--------------------------|
        G|-4~-4~-4~-4~--------------|
        D|-4~-4~-4~-4~--------------|
        A|-2~-2~-2~-2~-------5-4-2~-|
        E|-------------2-4-5--------|


Symbols: P.M.=Palm Mute
            
            x=Fretboard Palm Mute (left hand holds strings lightly)
         
         N.C.=No Chord

            ~=Held Chord

Hope my brief explanation helps. Very nice song from Guitar Hero II come to life. 
Добавлено: 17.06.2016
Другие материалы по этой песне:
  • Аккорды и текст

Страница создана 26.05.2012
http://primanota.ru/drist/decontrol-chords.htm
Привет, Гость.
Предлагаем пройти революционный курс по гитаре.
Подарок от PrimaNota.Ru, забирай!