PrimaNota.ru - самый крупный в мире бесплатный архив песенных текстов, аккордов, табулатур и нот


Drist - Arterial Black - аккорды и текст, таба, бас-таба, видео

Регистрация Запомнить меня
Войти через:  Facebook Google Twitter Vk Yandex Mail.ru

Drist - Arterial Black - аккорды и текст, таба, бас-таба, видео

Печатать
Просмотров: 296
Уроки эстрадного вокала в Санкт-Петербурге
Arterial Black
Drist
Intro:    D              A              F              Bb  A
       e|------------------------------------------------------|
       B|------------------------------------------------------|
       G|-7-7-7777777777---------------------------------------| X2
       D|-7-7-7777777777-7-7-7777777777-3-3-3333333333-8-8-7-7-|
       A|-5-5-5555555555-7-7-7777777777-3-3-3333333333-8-8-7-7-|
       E|----------------5-5-5555555555-1-1-1111111111-6-6-5-5-|

Verse:    D      A      F      Bb  A
       e|------------------------------|
       B|------------------------------|
       G|-7-7-77-----------------------| X4
       D|-7-7-77-7-7-77-3-3-33-8-8-7-7-|
       A|-5-5-55-7-7-77-3-3-33-8-8-7-7-|
       E|--------5-5-55-1-1-11-6-6-5-5-|

          D          A            F                   Bb        A
          I know you can't recall anything at all, or why we're standing here.

          D           A              F                   Bb     A
          The day you figure out your words had crumbled just below your feet.

          D             A                F           Bb     A
          This is how a mountain gathers purposely directed shadows.

          D            A             F                Bb      A
          This sinking ship has information that will tear us apart.

Chorus:    F        Bb A G D Bb A G D F                   Bb A G D Bb A G D 
        e|------------------------------------------------------------------|
        B|------------------------------------------------------------------|
        G|----------------7~-------7~---------------------------7~-------7~-| X2
        D|-3-3-3-3~-8-7-5-7~-8-7-5-7~-3-3-3-3~-33~-33-3-3-8-7-5-7~-8-7-5-7~-|
        A|-3-3-3-3~-8-7-5-5~-8-7-5-5~-3-3-3-3~-33~-33-3-3-8-7-5-5~-8-7-5-5~-|
        E|-1-1-1-1~-6-5-3----6-5-3----1-1-1-1~-11~-11-1-1-6-5-3----6-5-3----|

           F                                      Bb A G  D   Bb A G D
           Along the way we learn some things too haaaaaaard.  

           F                            Bb A G D      Bb A G D
           Whisper out the way to stop myyyyyy heart.

Pre-Verse:    D              A              F              Bb  A
           e|------------------------------------------------------|
           B|------------------------------------------------------|
           G|-7-7-7777777777---------------------------------------|
           D|-7-7-7777777777-7-7-7777777777-3-3-3333333333-8-8-7-7-|
           A|-5-5-5555555555-7-7-7777777777-3-3-3333333333-8-8-7-7-|
           E|----------------5-5-5555555555-1-1-1111111111-6-6-5-5-|

Verse:    D      A      F      Bb  A
       e|------------------------------|
       B|------------------------------|
       G|-7-7-77-----------------------| X4
       D|-7-7-77-7-7-77-3-3-33-8-8-7-7-|
       A|-5-5-55-7-7-77-3-3-33-8-8-7-7-|
       E|--------5-5-55-1-1-11-6-6-5-5-|

          D              A             F              Bb      A       D
          The things you used to say before the day I used to care at all.

                      A             F                   Bb     A
          It's in the fingertips, I caught you looking; hazing down on me.

          D             A                 F           Bb     A
          This is how a mountain gathers, purposely directed shadows.

          D            A             F                Bb      A  
          This sinking ship has information that will tear us apart.

Chorus:    F        Bb A G D Bb A G D F                   Bb A G D Bb A G D
        e|------------------------------------------------------------------|
        B|------------------------------------------------------------------|
        G|----------------7~-------7~---------------------------7~-------7~-| X4
        D|-3-3-3-3~-8-7-5-7~-8-7-5-7~-3-3-3-3~-33~-33-3-3-8-7-5-7~-8-7-5-7~-|
        A|-3-3-3-3~-8-7-5-5~-8-7-5-5~-3-3-3-3~-33~-33-3-3-8-7-5-5~-8-7-5-5~-|
        E|-1-1-1-1~-6-5-3----6-5-3----1-1-1-1~-11~-11-1-1-6-5-3----6-5-3----|

           F                                      Bb A G D Bb A G D
           Along the way we learn some things too haaaaaaaaaaaaaard. 

           F                            Bb A G D  Bb A G D
           Whisper out the way to stop myyyyyy heaaaaaaart.

           F                                      Bb A G D Bb A G D      
           Along the way we learn some things too haaaaaaaaaaaaaard. 

           F                            Bb A G D  Bb A G D
           Whisper out the way to stop myyyyyy heaaaaaaaaaart.

Bridge:    E                G        D                  F#               A        E
        e|------------------------------------|      e|------------------------------------|
        B|------------------------------------|      B|------------------------------------|
        G|---------------------------77777777-| X4   G|------------------------------------| X4
        D|-2222222222222222-55555555-77777777-|      D|-4444444444444444-77777777-22222222-|
        A|-2222222222222222-55555555-55555555-|      A|-4444444444444444-77777777-22222222-|
        E|-0000000000000000-33333333----------|      E|-2222222222222222-55555555-00000000-|

           D      A      F      Bb  A
        e|------------------------------|
        B|------------------------------|
        G|-7-7-77-----------------------| X2
        D|-7-7-77-7-7-77-3-3-33-8-8-7-7-|
        A|-5-5-55-7-7-77-3-3-33-8-8-7-7-|
        E|--------5-5-55-1-1-11-6-6-5-5-|

Chorus:    F                   Bb A G D Bb A G D
        e|---------------------------------------|
        B|---------------------------------------|
        G|---------------------------7~-------7~-| X4
        D|-3-3-3-3~-33~-33-3-3-8-7-5-7~-8-7-5-7~-|
        A|-3-3-3-3~-33~-33-3-3-8-7-5-5~-8-7-5-5~-|
        E|-1-1-1-1~-11~-11-1-1-6-5-3----6-5-3----|

           F                                 Bb A G D Bb A G D
           Along the way we learn things too haaaaaaaaaaaaaard. 

           F                            Bb A G D  Bb A G D
           Whisper out the way to stop myyyyyy heaaaaaaaaart.

           F                                 Bb A G D Bb A G D
           Along the way we learn things too haaaaaaaaaaaaaard. 

           F                            Bb A G D  Bb A G D
           Whisper out the way to stop myyyyyy heaaaaaaaaart.

Outro:    Bb A G Bb A G Bb A G F  D
       e|---------------------------|
       B|---------------------------|
       G|-------------------------7-|
       D|-8-7-5-8-7-5-88-77-55-33-7-|
       A|-8-7-5-8-7-5-88-77-55-33-5-|
       E|-6-5-3-6-5-3-66-55-33-11---|

Guitar Hero. Quite the inspiration for most for trying to learn guitar. Certainly helped me in trying to tab
this song out. Yes, it is a chords page and not an actual tab because there are only the chords and not the
lead guitar playing as well.  Additionally, the lyrics are starting where the lyrics start, so no need
to time out the lyrics with the chords given that the timing would be off.
Добавлено: 17.06.2016
Другие материалы по этой песне:

Страница создана 11.03.2012
http://primanota.ru/drist/arterial-black-chords.htm
Привет, Гость.
Предлагаем пройти революционный курс по гитаре.
Подарок от PrimaNota.Ru, забирай!