PrimaNota.ru - самый крупный в мире бесплатный архив песенных текстов, аккордов, табулатур и нот


Driftless Pony Club - Thanks Earthquake - таба, бас-таба, видео

Регистрация Запомнить меня
Войти через:  Facebook Google Twitter Vk Yandex Mail.ru

Driftless Pony Club - Thanks Earthquake - таба, бас-таба, видео

Печатать
Просмотров: 93
/=slide up!  It's my first time making tabs, so if I get chorus/verse mixed up, please correct me!

Intro: Guitar 1
e|--------------------------------------------------------------------------|
B|--------------------------------------------------------------------------|
G|--------------------------------------------------------------------------|
D|---------0-0-0-0----------------------------------------------------------|
A|--0-0-0-0-1-1-1-1-0-0-0-0/0-0-0-0-----------------------------------------|
E|-6-6-6-6---------1-1-1-1/5-5-5-5------------------------------------------|
X4                  

Guitar 2:
e|--------------------------------------------------------------------------|
B|-8------------------------------------------------------------------------|
G|--------------------------------------------------------------------------|
D|--5/7---------------------------------------------------------------------|
A|--------------------------------------------------------------------------|
E|--------------------------------------------------------------------------|
X2

Verse 1: Guitar 1

e|--------------------------------------------------------------------------|
B|-10-----------------------------------------------------------------------|
G|---10-10-10-9-9-7-5-------------------------------------------------------|
D|--------------------------------------------------------------------------|
A|--------------------------------------------------------------------------|
E|--------------------------------------------------------------------------|
X2

Verse 2: Guitar 1

e|--------------------------------------------------------------------------|
B|--------------------------------------------------------------------------|
G|-12-12-10-10-10-12-12-12-10-10-10-----------------------------------------|
D|-12-12-12-12-12-12-12-12-12-12-12-----------------------------------------|
A|--------------------------------------------------------------------------|
E|--------------------------------------------------------------------------|

e---------------------------------------------------------------------------|
B|--------------------------------------------------------------------------|
G|--------------------------------------------------------------------------|
D|-10-10-10-10-10-10-11-11-11-15-15-15--------------------------------------|
A|-12-12-12-12-12-12-12-12-12-12-12-12--------------------------------------|
E|--------------------------------------------------------------------------|
X4

Repeat verse 1 2X, Then do this:
e|------5-------------------------------------------------------------------|
B|----6---------------------------------------------------------------------|
G|-7-7-7-7-7-7--------------------------------------------------------------|
D|--------------------------------------------------------------------------|
A|--------------------------------------------------------------------------|
E|--------------------------------------------------------------------------|
8X

Chorus Pt.1:
e|--------------------------------------------------------------------------|
B|---------------------10-10-10-14-14-17-17---------------------------------|
G|-9-10-10-12-12-10-10------------------------------------------------------|
D|---------------------7--7--7--11-11-14-14---------------------------------|
A|-7-8--8--10-10-8--8-------------------------------------------------------|
E|--------------------------------------------------------------------------|
X2

Pt.2: Repeat Verse 2

Outro: Repeat the section after Verse 2, but instead of 8X, make it 16X.

Sorry if it is a little messy or confusing!  My tabs will improve in the future, thanks!
Добавлено: 23.04.2012
Другие материалы по этой песне:
  • Аккорды и текст

Страница создана 23.04.2012
http://primanota.ru/driftless-pony-club/thanks-earthquake-chords.htm
Привет, Гость.
Предлагаем пройти революционный курс по гитаре.
Подарок от PrimaNota.Ru, забирай!