PrimaNota.ru - самый крупный в мире бесплатный архив песенных текстов, аккордов, табулатур и нот


Driftless Pony Club - Bananas - таба, видео

Регистрация Запомнить меня
Войти через:  Facebook Google Twitter Vk Yandex Mail.ru

Driftless Pony Club - Bananas - таба, видео

Печатать
Просмотров: 118
actually wheezy waiter but he doesn't exist as an artist on u-g.
 wheezy waiter - bananas


  e|--------- --------------------|
  B|--5------------5--------------|
  G|--6------------5--------------|  repeat  (main chords thingy)
  D|--7------------7--------------|
  A|--7------------7--------------|
  E|------------------------------|
      v ^   ^ v ^  ^ v ^ ^ v ^

  e|--------5- ------5---|--------5- ------5- ---------|
  B|------6--------6-----|------5--------5-------------|
  G|----7--------7-------|----6--------6---------------|   po-tas-si-um ...
  D|--7--------7---------|--7--------7-----------------|      part
  A|---------------------|-----------------------------|
  E|---------------------|-----------------------------|

  e|--5------- ---------5 ---------5--------- 5--------- ------|
  B|--6-----------------5----------5----------5----------------|
  G|--7-----------------6----------5----------6----------------|  burried in the peels part
  D|--7-----------------7----------7----------7----------------|
  A|-----------------------------------------------------------|
  E|-----------------------------------------------------------|
      v  v  v^ ^v  v^   (idem)    (idem)     (idem)
Добавлено: 06.04.2012
Другие материалы по этой песне:
  • Аккорды и текст

Страница создана 06.04.2012
http://primanota.ru/driftless-pony-club/bananas-chords.htm
Привет, Гость.
Предлагаем пройти революционный курс по гитаре.
Подарок от PrimaNota.Ru, забирай!