PrimaNota.ru - самый крупный в мире бесплатный архив песенных текстов, аккордов, табулатур и нот


Driftless Pony Club - 18 Years Later - таба, видео

Регистрация Запомнить меня
Войти через:  Facebook Google Twitter Vk Yandex Mail.ru

Driftless Pony Club - 18 Years Later - таба, видео

Печатать
Просмотров: 96
-------------------------------------------------------------------------------
                             18 Years Later - Driftless Pony Club
-------------------------------------------------------------------------------
Tabbed by: Connor

Tuning: E Standard

Intro

Guitar 1
PM* * * * * * *  * * * * * * * *  * * * * * * *    * * * * * * * *
e-----------------|----------------|----------------|----------------|--
B-----------------|----------------|----------------|----------------|--
G-----------------|----------------|--------------9-|----------------|--
D-4-4-4-4-4-4-4-2-|2-2-2-2-2-2-2-2-|0-0-0-0-0-0-0---|0-0-0-0-0-0-0-0-|--x4
A-0-0-0-0-0-0-0-0-|0-0-0-0-0-0-0-0-|0-0-0-0-0-0-0---|0-0-0-0-0-0-0-0-|--
E-----------------|----------------|----------------|----------------|--

Guitar 2 (Enter on 2nd repeat)
      Let Ring~~~~~~~~~~
e------------------|--
B------------------|--
G------------------|--
D-2/--11-----------|--x3
A------------------|--
E------------------|--

First Chorus

Guitar 1

e-----------------|----------------|----------------|----------------|--
B---------------5-|--5-5---5-5-5---|----------------|----------------|--
G-2---2---2-2-2---|--x-x---x-x-x-4-|/-6-6---6-6-6-4-|\-2-2---2-2-2-2-|--
D-x---x---x-x-x-x-|--x-x---x-x-x-x-|--x-x---x-x-x-x-|--x-x---x-x-x-x-|--x2
A-0---0---0-0-0-0-|--0-0---0-0-0-0-|/-0-0---0-0-0-0-|\-0-0---0-0-0-0-|--
E-----------------|----------------|----------------|----------------|--

Guitar 2

e-----------------|----------------|-------------------|----------------|--
B-----------------|----------------|-------------------|----------------|--
G-----------------|----------------|-------------------|----------------|--
D-7---7---7-7-7-4-|--4-4---4-4-4-9-|/11-11-11-11-11--9-|--7-7---7-7-7-7-|--x2
A-x---x---x-x-x-x-|--x-x---x-x-x-x-|--x--x--x--x--x--x-|--x-x---x-x-x-x-|--
E-5---5---5-5-5-5-|--5-5---5-5-5-7-|/-9--9--9--9--9--7-|\-5-5---5-5-5-5-|--

Verse

Guitar 1
PM* * * * * * *  * * * * * * * *  * * * * * * *    * * * * * * * *
e-----------------|----------------|----------------|----------------|--
B-----------------|----------------|----------------|----------------|--
G-----------------|----------------|--------------9-|----------------|--
D-4-4-4-4-4-4-4-2-|2-2-2-2-2-2-2-2-|0-0-0-0-0-0-0---|0-0-0-0-0-0-0-0-|--x4
A-0-0-0-0-0-0-0-0-|0-0-0-0-0-0-0-0-|0-0-0-0-0-0-0---|0-0-0-0-0-0-0-0-|--
E-----------------|----------------|----------------|----------------|--


Guitar 2
Lightly PM'ed
e-----------------|----------------|--
B-----------------|----------------|--
G-----------------|----------------|--
D-11---11---7-----|6-----6-----6---|--x8
A-----------------|--------7-7-----|--
E-----------------|----------------|--

2nd Chorus

Guitar 1

e-----------------|----------------|----------------|----------------|--
B---------------5-|--5-5---5-5-5---|----------------|----------------|--
G-2---2---2-2-2---|--x-x---x-x-x-4-|/-6-6---6-6-6-4-|\-2-2---2-2-2-2-|--
D-x---x---x-x-x-x-|--x-x---x-x-x-x-|--x-x---x-x-x-x-|--x-x---x-x-x-x-|--x2
A-0---0---0-0-0-0-|--0-0---0-0-0-0-|/-0-0---0-0-0-0-|\-0-0---0-0-0-0-|--
E-----------------|----------------|----------------|----------------|--

Guitar 2

e-----------------|----------------|-------------------|----------------|--
B-----------------|----------------|-------------------|----------------|--
G-----------------|----------------|-------------------|----------------|--
D-7---7---7-7-7-4-|--4-4---4-4-4-9-|/11-11-11-11-11--9-|--7-7---7-7-7-7-|--x2
A-x---x---x-x-x-x-|--x-x---x-x-x-x-|--x--x--x--x--x--x-|--x-x---x-x-x-x-|--
E-5---5---5-5-5-5-|--5-5---5-5-5-7-|/-9--9--9--9--9--7-|\-5-5---5-5-5-5-|--

Post Chorus

Guitar 1

e-----------------|----------------|----------------|----------------|--
B-----------------|----------------|----------------|----------------|--
G-----------------|----------------|---7---6--------|----7---6-------|--
D-7-7-7-7-7-7-7---|--7/-9\-7-4-4-7-|--7--------7-7--|---7--------7---|--x4
A-x-x-x-x-x-x-x---|----------------|----------------|----------------|--
E-5-5-5-5-5-5-5-7-|----------------|----------------|----------------|--


Guitar 2

e-----------------|----------------|----------------|----------------|--
B-----------------|----------------|----------------|----------------|--
G---------6-------|----------------|---7---6--------|----7---6-------|--
D-4-4-7-4---7-4---|--7/-9\-7-4-4-7-|--7--------7-7--|---7--------7---|--x4
A-----------------|----------------|----------------|----------------|--
E---------------7-|----------------|----------------|----------------|--


Guitar 3 (Enter on third repeat)

e----|------------9---------|----------------|----------------|----------------|--
B-10-|10-10-10------10------|----------------|----------------|----------------|--
G----|---------11------11---|-------11\9-6/7-|------Rest------|-----Rest-------|--
D----|--------------------9-|-11/12----------|----------------|----------------|--x2
A----|----------------------|----------------|----------------|----------------|--
E----|----------------------|----------------|----------------|----------------|--

Bridge

Guitar 1

e-----------------|----------------|----------------|----------------|--
B-----------------|----------------|----------------|----------------|--
G-----------------|----------------|----------------|----------------|--
D-----4-------4---|----4-------4---|----5-------5---|----5-------5---|--
A-5-------5-------|5-------5-------|7-------7-------|7-------7-------|--
E-----------------|----------------|----------------|----------------|--

e-----------------|----------------|----------------|----------------|--
B-----------------|----------------|----------------|----------------|--
G-----6-------6---|----6-------6---|----6-------6---|----6-------6---|--
D-7-------7-------|7-------7-------|4-------4-------|4-------4-------|--x3
A-----------------|----------------|----------------|----------------|--
E-----------------|----------------|----------------|----------------|--


Guitar 2

e-----------------|----------------|----------------|----------------|--
B-7---7---7---7---|7---7---7---7---|8---8---8---8---|8---8---8---8---|--
G---7-------7-----|--7-------7-----|--7-------7-----|--7-------7-----|--
D-----------------|----------------|----------------|----------------|--
A-----------------|----------------|----------------|----------------|--
E-----------------|----------------|----------------|----------------|--

e-------9---------9---|------9---------9---|-----9--------9---|------9---------9---|--
B-10--------10--------|10--------10--------|9--------9--------|10--------10--------|--
G----11--------11-----|----11--------11----|--11-------11-----|---11--------11-----|--
D---------------------|--------------------|------------------|--------------------|--x3
A---------------------|--------------------|------------------|--------------------|--
E---------------------|--------------------|------------------|--------------------|--


Guitar 1

e-----------------|----------------|----------------|----------------|--
B-----------------|----------------|----------------|----------------|--
G-----------------|----------------|----------------|----------------|--
D-4---------------|4---------------|5---------------|5---------------|--
A-5x8-------------|5x8-------------|7x8-------------|7x8-------------|--
E-----------------|----------------|----------------|----------------|--

e-----------------|----------------|----------------|----------------|--
B-----------------|----------------|----------------|----------------|--
G-6---------------|-6--------------|6---------------|6---------------|--
D-7x8-------------|-7x8------------|4x8-------------|4x8-------------|--x1
A-----------------|----------------|----------------|----------------|--
E-----------------|----------------|----------------|----------------|--


Guitar 1

e-----------------|----------------|----------------|----------------|--
B-----------------|----------------|----------------|----------------|--
G-----------------|----------------|----------------|----------------|--
D-4---------------|4---------------|5---------------|5---------------|--
A-5x8-------------|5x6-------------|7x8-------------|7x6-------------|--
E-----------------|----------------|----------------|----------------|--

e-----------------|----------------|----------------|----------------|--
B-----------------|----------------|----------------|----------------|--
G-6---------------|-6--------------|6---------------|6---------------|--
D-7x8-------------|-7x6------------|4x8-------------|4x8-------------|--x1
A-----------------|----------------|----------------|----------------|--
E-----------------|----------------|----------------|----------------|--


Guitar 2

e-------------------|9------------------|-----------------|10---9--------------|--
B----------10---7---|---------10--------|--------10---7---|----------10--------|--
G-------------------|-------------------|-----------------|--------------------|--
D-------------------|-------------------|-----------------|--------------------|--x2
A-------------------|-------------------|-----------------|--------------------|--
E-------------------|-------------------|-----------------|--------------------|--


Guitar 1

e-----------------|----------------|----------------|----------------|--
B-----------------|----------------|----------------|----------------|--
G-----------------|----------------|----------------|----------------|--
D-4---------------|4---------------|5---------------|5---------------|--
A-5x8-------------|5x8-------------|7x8-------------|7x8-------------|--
E-----------------|----------------|----------------|----------------|--

e-----------------|----------------|----------------|----------------|--
B-----------------|----------------|----------------|----------------|--
G-6---------------|-6--------------|6---------------|6---------------|--
D-7x8-------------|-7x8------------|4x8-------------|4x8-------------|--x1
A-----------------|----------------|----------------|----------------|--
E-----------------|----------------|----------------|----------------|--

Intro

Guitar 1
PM* * * * * * *  * * * * * * * *  * * * * * * *    * * * * * * * *
e-----------------|----------------|----------------|----------------|--
B-----------------|----------------|----------------|----------------|--
G-----------------|----------------|--------------9-|----------------|--
D-4-4-4-4-4-4-4-2-|2-2-2-2-2-2-2-2-|0-0-0-0-0-0-0---|0-0-0-0-0-0-0-0-|--x2
A-0-0-0-0-0-0-0-0-|0-0-0-0-0-0-0-0-|0-0-0-0-0-0-0---|0-0-0-0-0-0-0-0-|--
E-----------------|----------------|----------------|----------------|--

Guitar 2 (Enter on 2nd repeat)
      Let Ring~~~~~~~~~~
e------------------|--
B------------------|--
G------------------|--
D-2/--11-----------|--x1
A------------------|--
E------------------|--

3rd Chorus

Guitar 1

e-----------------|----------------|----------------|----------------|--
B---------------5-|--5-5---5-5-5---|----------------|----------------|--
G-2---2---2-2-2---|--x-x---x-x-x-4-|/-6-6---6-6-6-4-|\-2-2---2-2-2-2-|--
D-x---x---x-x-x-x-|--x-x---x-x-x-x-|--x-x---x-x-x-x-|--x-x---x-x-x-x-|--x4
A-0---0---0-0-0-0-|--0-0---0-0-0-0-|/-0-0---0-0-0-0-|\-0-0---0-0-0-0-|--
E-----------------|----------------|----------------|----------------|--

Guitar 2

e-----------------|----------------|-------------------|----------------|--
B-----------------|----------------|-------------------|----------------|--
G-----------------|----------------|-------------------|----------------|--
D-7---7---7-7-7-4-|--4-4---4-4-4-9-|/11-11-11-11-11--9-|--7-7---7-7-7-7-|--x4
A-x---x---x-x-x-x-|--x-x---x-x-x-x-|--x--x--x--x--x--x-|--x-x---x-x-x-x-|--
E-5---5---5-5-5-5-|--5-5---5-5-5-7-|/-9--9--9--9--9--7-|\-5-5---5-5-5-5-|--

Outro

Guitar 1

e-----------------|----------------|----------------|----------------|--
B-----------------|----------------|----------------|----------------|--
G-----------------|----------------|---7---6--------|----7---6-------|--
D-7-7-7-7-7-7-7---|--7/-9\-7-4-4-7-|--7--------7-7--|---7--------7---|--x3
A-x-x-x-x-x-x-x---|----------------|----------------|----------------|--
E-5-5-5-5-5-5-5-7-|----------------|----------------|----------------|--


Guitar 2

e-----------------|----------------|----------------|----------------|--
B-----------------|----------------|----------------|----------------|--
G---------6-------|----------------|---7---6--------|----7---6-------|--
D-4-4-7-4---7-4---|--7/-9\-7-4-4-7-|--7--------7-7--|---7--------7---|--x3
A-----------------|----------------|----------------|----------------|--
E---------------7-|----------------|----------------|----------------|--


Guitar 3 (First 2 repeats)

e----|------------9---------|----------------|----------------|----------------|--
B-10-|10-10-10------10------|----------------|----------------|----------------|--
G----|---------11------11---|-------11\9-6/7-|------Rest------|-----Rest-------|--
D----|--------------------9-|-11/12----------|----------------|----------------|--x2
A----|----------------------|----------------|----------------|----------------|--
E----|----------------------|----------------|----------------|----------------|--


Guitar 3 (Third Repeat)


e-----------------|----------------|----------------|----------------|--
B-7-7-7-7-7-7-7-5-|--5-5-5-5-5-5---|----------------|----------------|--
G-----------------|--------------2-|------/4-------/|6--------/7-----|--
D-----------------|----------------|----------------|----------------|--
A-----------------|----------------|----------------|----------------|--
E-----------------|----------------|----------------|----------------|--



Guitar 1

e-----------------|----------------||
B-----------------|----------------||
G-----------------|----------------||
D-7-7-7-7-7-7-7---|--7/-9\-7-4-4-7-||
A-x-x-x-x-x-x-x---|----------------||
E-5-5-5-5-5-5-5-7-|----------------||


Guitar 2

e-----------------|----------------||
B-----------------|----------------||
G---------6-------|----------------||
D-4-4-7-4---7-4---|--7/-9\-7-4-4-7-||
A-----------------|----------------||
E---------------7-|----------------||

Guitar 3

e-----------------|----------------||
B-7-7-7-7-7-7-7-5-|--5-5-5-5-5-5---||
G-----------------|--------------2-||
D-----------------|----------------||
A-----------------|----------------||
E-----------------|----------------||
Добавлено: 30.05.2016
Другие материалы по этой песне:
  • Аккорды и текст

Страница создана 30.05.2016
http://primanota.ru/driftless-pony-club/18-years-later-chords.htm
Привет, Гость.
Предлагаем пройти революционный курс по гитаре.
Подарок от PrimaNota.Ru, забирай!