PrimaNota.ru - самый крупный в мире бесплатный архив песенных текстов, аккордов, табулатур и нот


Drifters - Kissin In The Back Row - бас-таба, видео

Регистрация Запомнить меня
Войти через:  Facebook Google Twitter Vk Yandex Mail.ru

Drifters - Kissin In The Back Row - бас-таба, видео

Печатать
Просмотров: 108
-------------------------------------------------------------------------------
                    KISSIN' IN THE BACK ROW - DISCO INFERNO
-------------------------------------------------------------------------------
Tabbed by: Tyran :)
E-mail: caitsullivan57@gmail.com

This version is for Disco Inferno: The Musical! So it is likely to be different from 
the real song :)

Tuning: STANDARD EADG

           Rest 8
G|---------------------------------------------------------------|
D|-----------------------------------1-1-3 ----------------------|
A|--------------------------3-3-5-5--------------1-1-------------|
E|-1-3-4----------1-1-1-1-1-----------------1-3------3-----------|
   A
G|---------------------------------------------------------------------------|
D|---------------------------1-1-1------------------------------------1-1-1--|
A|-1-1-1-------5-5-5--------------3-1-3--------5-3-------5-5-3-3-1-----------|
E|-------3-1-3--------2-3-4---------------1-1-1-----1-1-1----------3---------|
                           B
G|-----------------------------------------------------------------------------|
D|--------2-2-1-1-0-0----------------------------------1-1-1-------1-1-1-------|
A|-3-1-3--------------3-3----1-1-1-1-------5-5-5-5---1-------2-1-2-------2-1-2-|
E|-----------------------------------3-1-3---------3---------------------------|

G|-------------------------------------------------------------------------------|
D|-3-3-3-------3-3-3-------1-1-1-----1-1-1-0-0-----------------3-3-1-1-----------|
A|-------5-3-5-------5-3-5-------3-1-----------3-3-5-3-----------------5-3-1-1---|
E|-----------------------------------------------------1-1-1-1-------------------|
                C
G|---------------------------------------------------------------------------|
D|---------------------------------------------------------------------------|
A|-1-1-0-0--------------5-3-5-------3-5-3--1-1-1-------1-1-1-----------------|Cx2
E|---------3-3----1-1-1-------1-1-1--------------3-1-3-------3-1-3-----------|
   D
G|---------------------------------------------------------------------------|
D|-1-1-1-------1-1-1----------------------------------------------------1-2--|
A|-------1-3-1-------5-3-5--1-1-1-------1-1-1-------3-3-3-------3-3-3-5------|
E|--------------------------------3-1-3-------3-1-3-------5-3-5--------------|
                              E
G|-------------------------------------------------------------------------------|
D|-3---------------3---1-1-0---------------------------1-1-1-------1-1-1---------|
A|-----3-----------------------1-1-1-------5-5-5-------------3-1-3-------3-1-3---|
E|---1---1-1-1-1-1---1-------1-------3-1-3-------2-3-2---------------------------|
                                                             F
G|-----------------------------------------------------------------------------|
D|------------------------------1-1-1-------3-3-2-2-0-0------------------------|
A|-------5-3-------5-5-3-3-1----------3-1-3-------------3-3----1-1-1-1---------|
E|-1-1-1-----1-1-1-----------3-----------------------------------------3-1-3---|

G|----------------------------------------------------------------------------|
D|-------------1-1-1-------1-1-1-------3-3-3-------3-3-3--------1-1-1-----1---|
A|-5-5-5-5---1-------3-1-3-------3-1-3-------5-3-5-------5-3-5--------3-1-----|
E|---------3------------------------------------------------------------------|
                                               Rest 6
G|-----------------------------------------------------------------------|
D|-1-1-0-0-----------------3-3-3-1-1-------------------------------3-3---|
A|---------3-3-5-3-------------------5-3-1-1-----------------------------|
E|-----------------1-1-1-1-----------------------------3-3-1-1-1-1-------|
                           G
G|-------------------------------------------------------------------------|
D|-1-1-0--------------------------3-----1-----0-------------------3-----0--|
A|-------3-1-1-1-1----------------------------------3-----1----------------|
E|-----------------5-5-3-3----1-1---1-1---1-1---0-0---1-1---5-1-1---1-1----|
                        H
G|-------------------------------------------------------------------------|
D|-------------------------------------------------------------------------|
A|-----5-----3-----1------------3-5-3-------5-3-5-1-1-1-------1-1-1--------|Hx2
E|-1-1---1-1---1-1---5----1-1-1-------1-1-1-------------3-1-3-------3-1-1--|
   I
G|---------------------------------------------------------------------------|
D|-1-1-1-------1-1-1---------------------------------------------------1-2---|
A|-------1-3-1-------5-3-5-1-1-1-------1-1-1-------3-3-3-------3-3-3-5-------|
E|-------------------------------3-1-3-------3-1-3-------5-3-5---------------|
                              J
G|-----------------------------------------------------------------------------|
D|-3--------------3---1-1-0-----------------------------1-1-1-------1-1-1------|
A|----3-------------------------1-1-1-------5-5-5-------------3-1-3-------3-1-3|
E|--1---1-1-1-1-1---1-------1---------3-1-3-------2-4-3------------------------|

G|-------------------------------------------------------------------------|
D|-----------------------------1-1-1-------3-3-1-1-0-0---------------------|
A|-------5-3-------5-5-3-3-1---------3-1-3-------------3-3-1-1-1-1---------|
E|-1-1-1-----1-1-1-----------3--------------------------------------3-1-3--|

G|------------------------------------------------------------------|
D|-------------1-1-1-1-------1-1-1-1-------3-3-3-------3-3-3--------|
A|-5-5-5-5---1---------3-1-3---------3-1-3-------5-3-5-------5-3-5--|
E|---------3--------------------------------------------------------|
                                                        Rest 8
G|---------------------------------------------------------------------------|
D|-1-1-1-----1-1-1-0-0-----------------3-3-1-1-------------------------------|
A|-------3-1-----------3-3-5-3-----------------5-3-1-1--------------1--------|
E|-----------------------------1-1-1-1---------------------------------------|

===============================================================================
Добавлено: 08.06.2015
Вам также может быть интересно:
Другие материалы по этой песне:
  • Аккорды и текст

Страница создана 08.06.2015
http://primanota.ru/drifters/kissin-in-back-row-chords.htm
Привет, Гость.
Предлагаем пройти революционный курс по гитаре.
Подарок от PrimaNota.Ru, забирай!