PrimaNota.ru - самый крупный в мире бесплатный архив песенных текстов, аккордов, табулатур и нот


Dri - Who Am I - текст песни, таба, видео

Регистрация Запомнить меня
Войти через:  Facebook Google Twitter Vk Yandex Mail.ru

Dri - Who Am I - текст песни, таба, видео

Печатать
Просмотров: 78
Artist: D.r.i.
Piece: Who Am I
Instrument: Guitar

MAIN VERSE
e|--------------------|
B|--------------------|
G|--10---------10b----|
D|--10--11--10--------|
A|---8--11--10--------|
E|------9----8--------|

e|--------------------|
B|--------------------|
G|--10----------------|
D|--10---11---8-------|
A|---8---11---8-------|
E|--------9---6-------|

CHORUS
e|----------------------|
B|----------------------|
G|--12-12-12-12-12--10--|
D|--12-12-12-12-12--10--|
A|--10-10-10-10-10---8--|
E|----------------------|

END
e|------|
B|------|
G|--10--|
D|--10--|
A|---8--|
E|------|
Добавлено: 15.06.2016
Другие материалы по этой песне:
  • Аккорды и текст

Страница создана 27.04.2012
http://primanota.ru/dri/who-am-i--chords.htm
Привет, Гость.
Предлагаем пройти революционный курс по гитаре.
Подарок от PrimaNota.Ru, забирай!