PrimaNota.ru - самый крупный в мире бесплатный архив песенных текстов, аккордов, табулатур и нот


Dri - Violent Pacification - текст песни, таба, видео

Регистрация Запомнить меня
Войти через:  Facebook Google Twitter Vk Yandex Mail.ru

Dri - Violent Pacification - текст песни, таба, видео

Печатать
Просмотров: 80
Artist: D.r.i.
Piece: Violent Pacification

e:-----------------------------|
B:-----------------------------|
G:-----------------------------|
D:-----------------------------|
A:--10-----10-----10----10--10-|
E:--8------8------8-----8---8--|

e:--------------------------------|
B:--------------------------------|
G:--------------------------------|
D:--------------------------------|
A:-10-10-10--12-13-10-10-10--7-8--|
E:-8--8--8---10-11-8--8--8---5-6--|

Violent Pacification
e:------------------------------------|
B:------------------------------------|
G:--------------------2------3--------|
D:-2--------3---------2------3--------|
A:-2--------3---------0------1--------|
E:-0--------1-------------------------|

:-----------------------------------------------------------|
:-----------------------------------------------------------|
:-----------------------------------------------------------|
:-5555-6666--7777--8888--9999--10101010--11111111--12121212-|
:-3333-4444--5555--6666--7777---8-8-8-8--9-9-9-9---10101010-|
:-----------------------------------------------------------|

e:--------------------------------|
B:--------------------------------|
G:--------------------------------|
D:--------------------------------|
A:-10-10-10--12-13-10-10-10--7-8--|
E:-8--8--8---10-11-8--8--8---5-6--|

Violent Pacification
e:------------------------------------|
B:------------------------------------|
G:--------------------2------3--------|
D:-2--------3---------2------3--------|
A:-2--------3---------0------1--------|
E:-0--------1-------------------------|

                                                                   fdBk
e:------------------------------------------------------------------|
B:------------------------------------------------------------------|
G:------------------------------------------------------------------|
D:-12121212--11111111--10-10-10-10--9999--8888--7777--6666--5555--4-|
A:-10101010--9-9-9-9---8--8--8--8---7777--6666--5555--4444--3333--2-|
E:------------------------------------------------------------------|


:-------------------------------------------------|
:-------------------------------------------------|
:-------------------------------------------------|
:------------------------------------9--9--9--9---|
:--5/7-7--9---9--9-9-9-9-9-9--9--9---7--7--7--7---|
:--3/5-5--7---7--7-7-7-7-7-7--7--7----------------|

:--------------------------------|
:--------------------------------|
:--------------------------------|
:--------------------------------|
:-9--9-9--9-9-9-9--9-9-9--5/7-7--|
:-7--7-7--7-7-7-7--7-7-7--3/5-5--|


e:-----------------------------------------------------------------------------------------|
B:-----------------------------------------------------------------------------------------|
G:-----------------------------------------------------------------------------------------|
D:-----------------------------------------------------------------------------------------|
A:10--10-10--10--10-10--10--10-10--10--10-10--12--12-12--12--12-12--12-12--12--11-11-11-11-|
E:8---8--8---8---8--8---8---8--8---8---8--8---10--10-10--10--10-10--10-10--10--9--9--9--9--|

:--------------------------------|
:--------------------------------|
:--------------------------------|
:--------------------------------|
:-9--9-9--9-9-9-9--9-9-9--5/7-7--|
:-7--7-7--7-7-7-7--7-7-7--3/5-5--|


:------------------------------------|
:------------------------------------|
:------------------------------------|
:-----------------------9--9--9--9---|
:-9-9-9-9-9-9-9-9-9-9---7--7--7--7---|
:-7-7-7-7-7-7-7-7-7-7----------------|

:--------------------------------|
:--------------------------------|
:--------------------------------|
:--------------------------------|
:-9--9-9--9-9-9-9--9-9-9--5/7-7--|
:-7--7-7--7-7-7-7--7-7-7--3/5-5--|

:------------------------------------|
:------------------------------------|
:------------------------------------|
:-----------------------9--9--9--9---|
:-9-9-9-9-9-9-9-9-9-9---7--7--7--7---|
:-7-7-7-7-7-7-7-7-7-7----------------|

e:-----------------------------------------------------------------------------------------|
B:-----------------------------------------------------------------------------------------|
G:-----------------------------------------------------------------------------------------|
D:-----------------------------------------------------------------------------------------|
A:10--10-10--10--10-10--10--10-10--10--10-10--12--12-12--12--12-12--12-12--12--11-11-11-11-|
E:8---8--8---8---8--8---8---8--8---8---8--8---10--10-10--10--10-10--10-10--10--9--9--9--9--|


e:------------------|
B:------------------|
G:------------------|
D:------------------|
A:----------0----1--|
E:-0----1-----------|

e:---------------------|
B:---------------------|
G:---------------------|
D:---------------------|
A:----------0----1-/6B-|
E:-0----1--------------|

e:------------------|
B:------------------|
G:------------------|
D:----------2----3--|
A:-2----3---0----1--|
E:-0----1-----------|


e:----------------------------------------------------------------|
B:----------------------------------------------------------------|
G:----------------------------------------------------------------|
D:---------------------------------2--2-2-2-2-2-2--3--3-3-3-3-3-3-|
A:-2--2-2-2-2-2-2--3--3-3-3-3-3-3--0--0-0-0-0-0-0--1--1-1-1-1-1-1-|
E:-0--0-0-0-0-0-0--1--1-1-1-1-1-1---------------------------------|

:-----------------------------------------------------------|
:-----------------------------------------------------------|
:-----------------------------------------------------------|
:-5555-6666--7777--8888--9999--10101010--11111111--12121212-|
:-3333-4444--5555--6666--7777---8-8-8-8--9-9-9-9---10101010-|
:-----------------------------------------------------------|
Добавлено: 29.10.2015
Другие материалы по этой песне:
  • Аккорды и текст

Страница создана 11.05.2012
http://primanota.ru/dri/violent-pacification-chords.htm
Привет, Гость.
Предлагаем пройти революционный курс по гитаре.
Подарок от PrimaNota.Ru, забирай!