PrimaNota.ru - самый крупный в мире бесплатный архив песенных текстов, аккордов, табулатур и нот


Dri - The Explorer - текст песни, таба, видео

Регистрация Запомнить меня
Войти через:  Facebook Google Twitter Vk Yandex Mail.ru

Dri - The Explorer - текст песни, таба, видео

Печатать
Просмотров: 68
Artist: D.r.i.
Piece: The Explorer

  fdBk
e:-----------------|
B:-----------------|
G:-----------------|
D:-----------------|
A:-----------------|
E:-----------4B----|


e:----------------------------------------------------------------------|
B:----------------------------------------------------------------------|
G:----------------------------------------------------------------------|
D:-4--4-4-4-4-4-4-4-4-----------------------7-7-7-7-7-7--3-3--5-5-5-5-5-|
A:-2--2-2-2-2-2-2-2-2--5-5-5-5--4--4-4-4-4--5-5-5-5-5-5--1-1--3-3-3-3-3-|
E:---------------------3-3-3-3--2--2-2-2-2------------------------------|

e:----------------------------------------------------------------------|
B:----------------------------------------------------------------------|
G:----------------------------------------------------------------------|
D:-4--4-4-4-4-4-4-4-4-----------------------7-7-7-7-7-7--3-3--5-5-5-5-5-|
A:-2--2-2-2-2-2-2-2-2--5-5-5-5--4--4-4-4-4--5-5-5-5-5-5--1-1--3-3-3-3-3-|
E:---------------------3-3-3-3--2--2-2-2-2------------------------------|

e:----------------------------------------------------------------------|
B:----------------------------------------------------------------------|
G:----------------------------------------------------------------------|
D:-4--4-4-4-4-4-4-4-4-----------------------7-7-7-7-7-7--3-3--5-5-5-5-5-|
A:-2--2-2-2-2-2-2-2-2--5-5-5-5--4--4-4-4-4--5-5-5-5-5-5--1-1--3-3-3-3-3-|
E:---------------------3-3-3-3--2--2-2-2-2------------------------------|

e:----------------------------------------------------|
B:----------------------------------------------------|
G:----------------------------------------------------|
D:-4--4-4-4-4-4-4-4-4-----------------------7---3---5-|
A:-2--2-2-2-2-2-2-2-2--5-5-5-5--4--4-4-4-4--5---1---3-|
E:---------------------3-3-3-3--2--2-2-2-2------------|


e:-----------------------------------------------------------------------|
B:-----------------------------------------------------------------------|
G:-----------------------------------------------------------------------|
D:------------------10-10-10--12-12-12-------------------10-10-10--7-7-7-|
A:-12-12--7--9-9-9--8--8--8---10-10-10--12-12--7--9-9-9--8--8--8---5-5-5-|
E:-10-10--5--7-7-7----------------------10-10--5--7-7-7------------------|

e:--------------------------------------------------------------------|
B:--------------------------------------------------------------------|
G:--------------------------------------------------------------------|
D:------------------10-10-10--12-12-12-------------------10-10-10--7--|
A:-12-12--7--9-9-9--8--8--8---10-10-10--12-12--7--9-9-9--8--8--8---5--|
E:-10-10--5--7-7-7----------------------10-10--5--7-7-7---------------|


e:-----------------------------------------|
B:-----------------------------------------|
G:-----------------------------------------|
D:-5-5-5-5-5-5-5-5-5--8-8-8-8-8-8-8-8-8--9-|
A:-3-3-3-3-3-3-3-3-3--6-6-6-6-6-6-6-6-6--7-|
E:-----------------------------------------|

       Bar                              pick slide
e:---------------/---------------------------------------------|
B:--------------/----------------------------------------------|
G:-------------/-----------------------------------------------|
D:-------------------------------------------------------------|
A:--------------------------------------x----------------------|
E:-0--------(0)----------0h1B---p0------x-----------/15--------|

e:-------------------------|
B:-------------------------|
G:-------------------------|
D:-10-10-------------10----|
A:-8--8--------------8-----|
E:-------------------------|

e:-------------------------|
B:-------------------------|
G:-------------------------|
D:-10-10---------12--10--9-|
A:-8--8----------10--8---7-|
E:-------------------------|

e:---------------------------|
B:---------------------------|
G:---------------------------|
D:-10-10------------9--------|
A:-8--8-------------7--------|
E:---------------------------|

e:------------------------------------------|
B:------------------------------------------|
G:------------------------------------------|
D:-10-10---7-----------------------7--3--5--|
A:-8--8----5-----4--4-4--5-5--6-6--5--1--3--|
E:------------0--2--2-2--3-3--4-4-----------|


:-----------------------------|
:-----------------------------|
:-----------------------------|
:--555555555555--88888888888--|
:--333333333333--66666666666--|
:-----------------------------|

:-----------------------------|
:-----------------------------|
:-----------------------------|
:--555555555555--88888888888--|
:--333333333333--66666666666--|
:-----------------------------|

:-----------------------------|
:-----------------------------|
:-----------------------------|
:--555555555555--888888888--9-|
:--333333333333--666666666--7-|
:-----------------------------|

e:-----------------------------------------------------------------------|
B:-----------------------------------------------------------------------|
G:-----------------------------------------------------------------------|
D:------------------10-10-10--12-12-12-------------------10-10-10--7-7-7-|
A:-12-12--7--9-9-9--8--8--8---10-10-10--12-12--7--9-9-9--8--8--8---5-5-5-|
E:-10-10--5--7-7-7----------------------10-10--5--7-7-7------------------|

e:--------------------------------------------------------------------|
B:--------------------------------------------------------------------|
G:--------------------------------------------------------------------|
D:------------------10-10-10--12-12-12-------------------10-10-10--7--|
A:-12-12--7--9-9-9--8--8--8---10-10-10--12-12--7--9-9-9--8--8--8---5--|
E:-10-10--5--7-7-7----------------------10-10--5--7-7-7---------------|

      Bar                              pick slide
e:---------------/---------------------------------------------|
B:--------------/----------------------------------------------|
G:-------------/-----------------------------------------------|
D:-------------------------------------------------------------|
A:--------------------------------------x----------------------|
E:-0--------(0)----------0h1B---p0------x-----------/15--------|

e:-------------------------|
B:-------------------------|
G:-------------------------|
D:-10-10-------------10----|
A:-8--8--------------8-----|
E:-------------------------|

e:-------------------------|
B:-------------------------|
G:-------------------------|
D:-10-10---------12--10--9-|
A:-8--8----------10--8---7-|
E:-------------------------|

e:---------------------------|
B:---------------------------|
G:---------------------------|
D:-10-10------------9--------|
A:-8--8-------------7--------|
E:---------------------------|

e:------------------------------------------|
B:------------------------------------------|
G:------------------------------------------|
D:-10-10---7-----------------------7--3--5--|
A:-8--8----5-----4--4-4--5-5--6-6--5--1--3--|
E:------------0--2--2-2--3-3--4-4-----------|
Добавлено: 29.10.2015
Другие материалы по этой песне:
  • Аккорды и текст

Страница создана 29.04.2012
http://primanota.ru/dri/the-explorer-chords.htm
Привет, Гость.
Предлагаем пройти революционный курс по гитаре.
Подарок от PrimaNota.Ru, забирай!