PrimaNota.ru - самый крупный в мире бесплатный архив песенных текстов, аккордов, табулатур и нот


Dri - Tear It Down - текст песни, таба, видео

Регистрация Запомнить меня
Войти через:  Facebook Google Twitter Vk Yandex Mail.ru

Dri - Tear It Down - текст песни, таба, видео

Печатать
Просмотров: 108
Уроки эстрадного вокала в Санкт-Петербурге
Artist: D.r.i.
Piece: Tear It Down

e:-------------------------------------------------|
B:-------------------------------------------------|
G:-------------------------------------------------|
D:-------------------------------------------------|
A:-10-10-10-10-10--9--9-9-9--7--7-7-7--5--5-5-5--4-|
E:-8--8--8--8--8---7--7-7-7--5--5-5-5--3--3-3-3--2-|

e:----------------------------------|
B:----------------------------------|
G:----------------------------------|
D:----------------------10-10-10-10-|
A:-999999999--77777777--8--8--8--8--|
E:-777777777--55555555--------------|

e:----------------------------------|
B:----------------------------------|
G:----------------------------------|
D:----------------------------------|
A:-999999999--77777777--12-12-12-12-|
E:-777777777--55555555--10-10-10-10-|

e:----------------------------------|
B:----------------------------------|
G:----------------------------------|
D:----------------------10-10-10-10-|
A:-999999999--77777777--8--8--8--8--|
E:-777777777--55555555--------------|

               bar
e:---------------------|
B:------------15-------|
G:---------------------|
D:---------------------|
A:-999999999-----------|
E:-777777777-----------|

verse
e:--------------------------|
B:--------------------------|
G:--------------------------| ---------
D:--------------------------|
A:-999999999-10-10-12-12-12-|
E:-777777777-8--8--10-10-10-|          x 4

e:---------------------------|
B:---------------------------|
G:---------------------------|---------
D:---------------------------|
A:-999999999-10-10-10-777777-|
E:-777777777-8--8--8--555555-|


:-------------------------------------------------------------|
:-------------------------------------------------------------|  
:-------------------------------------------------------------|  x 2
:--------------3-x--------------------------------------------|
:-5-5-x-x-x-x--1-x--4-x--3--2-2-------3-------3-------3-------|
:-3-3-x-x-x-x-------2-x--1--0-0-0-0-0-1-0-0-0-1-0-0-0-1-0-0-0-|


:-------------------------------------------------------|
:-------------------------------------------------------|  
:-------------------------------------------------------|  x 2
:--------------3-x--------------------------------------|
:-5-5-x-x-x-x--1-x--4-x--3--2-2-------------------------|
:-3-3-x-x-x-x-------2-x--1--0-0-000-000-000-000-000-000-|

e:----------------------------------|
B:----------------------------------|
G:----------------------------------|
D:----------------------10-10-10-10-|
A:-999999999--77777777--8--8--8--8--|
E:-777777777--55555555--------------|

e:----------------------------------|
B:----------------------------------|
G:----------------------------------|
D:----------------------------------|
A:-999999999--77777777--12-12-12-12-|
E:-777777777--55555555--10-10-10-10-|

e:----------------------------------|
B:----------------------------------|
G:----------------------------------|
D:----------------------10-10-10-10-|
A:-999999999--77777777--8--8--8--8--|
E:-777777777--55555555--------------|

e:----------------------------------|
B:----------------------------------|
G:----------------------------------|
D:----------------------------------|
A:-999999999--77777777--12-12-12-12-|
E:-777777777--55555555--10-10-10-10-|


verse
e:--------------------------|
B:--------------------------|
G:--------------------------| ---------
D:--------------------------|
A:-999999999-10-10-12-12-12-|
E:-777777777-8--8--10-10-10-|          x 4

e:---------------------------|
B:---------------------------|
G:---------------------------|---------
D:---------------------------|
A:-999999999-10-10-10-777777-|
E:-777777777-8--8--8--555555-|


:-------------------------------------------------------------|
:-------------------------------------------------------------|  
:-------------------------------------------------------------|  x 4
:--------------3-x--------------------------------------------|
:-5-5-x-x-x-x--1-x--4-x--3--2-2-------3-------3-------3-------|
:-3-3-x-x-x-x-------2-x--1--0-0-0-0-0-1-0-0-0-1-0-0-0-1-0-0-0-|


e:--------------------------------|
B:--------------------------------|
G:--------------------------------|  x 4
D:--------------------------------|
A:-7-7-10-9-9-9-9-9-9-9-9-x-x-x-x-|
E:-5-5-8--7-7-7-7-7-7-7-7-x-x-x-x-|

e:----------------------------------|
B:----------------------------------|
G:----------------------------------|
D:----------------------10-10-10-10-|
A:-999999999--77777777--8--8--8--8--|
E:-777777777--55555555--------------|

e:----------------------------------|
B:----------------------------------|
G:----------------------------------|
D:----------------------------------|
A:-999999999--77777777--12-12-12-12-|
E:-777777777--55555555--10-10-10-10-|

e:----------------------------------|
B:----------------------------------|
G:----------------------------------|
D:----------------------10-10-10-10-|
A:-999999999--77777777--8--8--8--8--|
E:-777777777--55555555--------------|

               bar
e:---------------------|
B:------------15-------|
G:---------------------|
D:---------------------|
A:-999999999-----------|
E:-777777777-----------|

verse
e:--------------------------|
B:--------------------------|
G:--------------------------| ---------
D:--------------------------|
A:-999999999-10-10-12-12-12-|
E:-777777777-8--8--10-10-10-|          x 4

e:---------------------------|
B:---------------------------|
G:---------------------------|---------
D:---------------------------|
A:-999999999-10-10-10-777777-|
E:-777777777-8--8--8--555555-|


:-------------------------------------------------------------|
:-------------------------------------------------------------|  
:-------------------------------------------------------------|  x 2
:--------------3-x--------------------------------------------|
:-5-5-x-x-x-x--1-x--4-x--3--2-2-------3-------3-------3-------|
:-3-3-x-x-x-x-------2-x--1--0-0-0-0-0-1-0-0-0-1-0-0-0-1-0-0-0-|


:-------------------------------------------------------|
:-------------------------------------------------------|  
:-------------------------------------------------------|  x 2
:--------------3-x--------------------------------------|
:-5-5-x-x-x-x--1-x--4-x--3--2-2-------------------------|
:-3-3-x-x-x-x-------2-x--1--0-0-000-000-000-000-000-000-|

e:----------------------------------|
B:----------------------------------|
G:----------------------------------|
D:----------------------10-10-10-10-|
A:-999999999--77777777--8--8--8--8--|
E:-777777777--55555555--------------|

e:----------------------------------|
B:----------------------------------|
G:----------------------------------|
D:----------------------------------|
A:-999999999--77777777--12-12-12-12-|
E:-777777777--55555555--10-10-10-10-|

e:----------------------------------|
B:----------------------------------|
G:----------------------------------|
D:----------------------10-10-10-10-|
A:-999999999--77777777--8--8--8--8--|
E:-777777777--55555555--------------|

e:----------------------------------|
B:----------------------------------|
G:----------------------------------|
D:----------------------------------|
A:-999999999--77777777--12-12-12-12-|
E:-777777777--55555555--10-10-10-10-|


verse
e:--------------------------|
B:--------------------------|
G:--------------------------| ---------
D:--------------------------|
A:-999999999-10-10-12-12-12-|
E:-777777777-8--8--10-10-10-|          x 4

e:---------------------------|
B:---------------------------|
G:---------------------------|---------
D:---------------------------|
A:-999999999-10-10-10-777777-|
E:-777777777-8--8--8--555555-|


:-------------------------------------------------------------|
:-------------------------------------------------------------|  
:-------------------------------------------------------------|  x 3
:--------------3-x--------------------------------------------|
:-5-5-x-x-x-x--1-x--4-x--3--2-2-------3-------3-------3-------|
:-3-3-x-x-x-x-------2-x--1--0-0-0-0-0-1-0-0-0-1-0-0-0-1-0-0-0-|


:-------------------------------------------------------------|
:-------------------------------------------------------------|  
:-------------------------------------------------------------|
:--------------3-x--------------------------------------------|
:-5-5-x-x-x-x--1-x--4-x--3--2-2-------------------------------|
:-3-3-x-x-x-x-------2-x--1--0-0-0-0-0-1-0-0-0-1-0-0-0-1-0-0-0-|


e:--------------------------------|
B:--------------------------------|
G:--------------------------------|  x 4
D:--------------------------------|
A:-7-7-10-9-9-9-9-9-9-9-9-x-x-x-x-|
E:-5-5-8--7-7-7-7-7-7-7-7-x-x-x-x-|

          pm.............
e:------------------------|
B:------------------------|
G:------------------------|  x 4
D:------------------------|
A:-7-7-10-9-9-9-9-9-9-9-9-|
E:-5-5-8--7-7-7-7-7-7-7-7-|

e:-------------------------------------------------|
B:-------------------------------------------------|
G:-------------------------------------------------|
D:-------------------------------------------------|
A:-10-10-10-10-10--9--9-9-9--7--7-7-7--5--5-5-5--4-|
E:-8--8--8--8--8---7--7-7-7--5--5-5-5--3--3-3-3--2-|
Добавлено: 29.10.2015
Другие материалы по этой песне:
  • Аккорды и текст

Страница создана 10.07.2012
http://primanota.ru/dri/tear-it-down-chords.htm
Привет, Гость.
Предлагаем пройти революционный курс по гитаре.
Подарок от PrimaNota.Ru, забирай!