PrimaNota.ru - самый крупный в мире бесплатный архив песенных текстов, аккордов, табулатур и нот


Dri - Soup Kitchen - текст песни, таба, видео

Регистрация Запомнить меня
Войти через:  Facebook Google Twitter Vk Yandex Mail.ru

Dri - Soup Kitchen - текст песни, таба, видео

Печатать
Просмотров: 51
Artist: D.r.i.
Piece: Soup Kitchen

e:-----------------------------------------------------------------------------------------|
B:-----------------------------------------------------------------------------------------|
G:-----------------------------------------------------------------------------------------|
D:-3-3--6-6-6-6--3-3--4-4-4-4-4--3-3--6-6-6-6--3-3--4-4-4-4-4--3--3-3-3-3-3-3-3-3--2--2-2-2|
A:-1-1--4-4-4-4--1-1--2-2-2-2-2--1-1--4-4-4-4--1-1--2-2-2-2-2--1--1-1-1-1-1-1-1-1--0--0-0-0|
E:-----------------------------------------------------------------------------------------|

e:---------------------------------------------------------------------------------------|
B:---------------------------------------------------------------------------------------|
G:---------------------------------------------------------------------------------------|
D:-2-2-2--5--5-5-5-5-5-5--6--6-6-6-6-6-6-------------------------------------------------|
A:-0-0-0--3--3-3-3-3-3-3--4--4-4-4-4-4-4--6-6-6-6-6-6-6-6--5-5-5-5-5-5-5--4-4-4-4-4-4--3-|
E:----------------------------------------4-4-4-4-4-4-4-4--3-3-3-3-3-3-3--2-2-2-2-2-2--1-|

pick slide
e:-------------------------------------------------------------------------|
B:-----------------------------------------------14B-----------------------|
G:-----------------------------------------------16B-----------------------|
D:-------3-x-3---6--3-x-3--4---3-x-3---6--3-x-3--------3-x-3---6--3-3--4---|
A:-x----1-x-1---4--1-x-1--2---1-x-1---4--1-x-1--------1-x-1---4--1-1--2----|
E:-x-----------------------------------------------------------------------|

:----------------------------------------------------------------------------------------|
:----------------------------------------------------------------------------------------|
:----------------------------------------------------------------------------------------|
:--3-x-3---6--3-x-3--4---3-x-3---6--3-x-3--4---3-x-3---6--3-x-3--4---3-x-3---6--3-x-3--4-|
:--1-x-1---4--1-x-1--2---1-x-1---4--1-x-1--2---1-x-1---4--1-x-1--2---1-x-1---4--1-x-1--2-|
:----------------------------------------------------------------------------------------|

:---------------------------|
:---------------------------|
:---------------------------|
:--3-x-3---6--3-x-3--4------|
:--1-x-1---4--1-x-1--2------|
:---------------------------|

e:------------------------------------------------------|
B:------------------------------------------------------|
G:------------------------------------------------------|
D:-2-2--9/109--5-5--4/54---2-2--9/109--5-5--4/54--------|
A:-0-0--7/8-7--3-3--2/32---0-0--7/8-7--3-3--2/32--------|
E:------------------------------------------------------|

e:---------------------------------------------------------------------------|
B:------------------------------------------14B--17--------------------------|
G:------------------------------------------16B-----16Bp14-------------------|
D:--3-x-3---6--3-x-3--4---3-x-3---6--3-x-3-----------------3-x-3---6--3-3--4-|
A:--1-x-1---4--1-x-1--2---1-x-1---4--1-x-1-----------------1-x-1---4--1-1--2-|
E:---------------------------------------------------------------------------|

:------------------------------------------------------------------------------------------|
:------------------------------------------------------------------------------------------|
:------------------------------------------------------------------------------------------|
:--3-x-3---6--3-x-3--4---3-x-3---6--3-x-3--4---3--3-3-3--3-3-3--3-3-3--3-3--2--2-2-2--2-2-2|
:--1-x-1---4--1-x-1--2---1-x-1---4--1-x-1--2---1--1-1-1--1-1-1--1-1-1--1-1--0--0-0-0--0-0-0|
:------------------------------------------------------------------------------------------|


e:---------------------------------------------------------------------------------------|
B:---------------------------------------------------------------------------------------|
G:---------------------------------------------------------------------------------------|
D:-2-2-2--2-2--5--5-5-5--5-5-5--5-5-5--6--6-6-6--6-6-6--6-6-6----------------------------|
A:-0-0-0--0-0--3--3-3-3--3-3-3--3-3-3--4--4-4-4--4-4-4--4-4-4--6--6-6-6--6-6-6--6-6-6--5-|
E:-------------------------------------------------------------4--4-4-4--4-4-4--4-4-4--3-|

:--------------------------------------------------------------------------|
:--------------------------------------------------------------------------|
:--------------------------------------------------------------------------|
:--------------------------------------------------------------------------|
:5-5-5--5-5-5--5-5-5--4--4-4-4--4-4-4--4-4-4--3----------------------------|
:3-3-3--3-3-3--3-3-3--2--2-2-2--2-2-2--2-2-2--1----------------------------|

e:------------------------------------------------------|
B:------------------------------------------------------|
G:------------------------------------------------------|
D:-2-2--9/109--5-5--4/54---2-2--9/109--5-5--4/54--------|
A:-0-0--7/8-7--3-3--2/32---0-0--7/8-7--3-3--2/32--------|
E:------------------------------------------------------|
Добавлено: 29.10.2015
Другие материалы по этой песне:
  • Аккорды и текст

Страница создана 26.06.2012
http://primanota.ru/dri/soup-kitchen-chords.htm
Привет, Гость.
Предлагаем пройти революционный курс по гитаре.
Подарок от PrimaNota.Ru, забирай!