PrimaNota.ru - самый крупный в мире бесплатный архив песенных текстов, аккордов, табулатур и нот


Dri - Running Around - текст песни, таба, видео

Регистрация Запомнить меня
Войти через:  Facebook Google Twitter Vk Yandex Mail.ru

Dri - Running Around - текст песни, таба, видео

Печатать
Просмотров: 74
running around



D.R.I.




album: violent pacification EP




TRANSCRIBED BY RUDY GUZMAN




guzman_84@hotmail.com




                                    x2                                       
e:------------------------------------|
B:------------------------------------|
G:------------------------------------|
D:----------------7-------------------|
A:-9-9-9-9-9-9-9--5--9-9-9-9-9--7-7-7-|
E:-7-7-7-7-7-7-7-----7-7-7-7-7--5-5-5-|

                            x2
e:----------------------------|
B:----------------------------|
G:----------------------------|
D:-----------------------9----|
A:-11-11-11-11-11-11-11--7--9-|
E:-9--9--9--9--9--9--9------7-|

                                    x2                                       
e:------------------------------------|
B:------------------------------------|
G:------------------------------------|
D:----------------7-------------------|
A:-9-9-9-9-9-9-9--5--9-9-9-9-9--7-7-7-|
E:-7-7-7-7-7-7-7-----7-7-7-7-7--5-5-5-|


e:--------9~~----------------------------------|
B:---------------------------------------------|
G:----11---------------------------------------|
D:-11----------9------11p9----9-11p9------9----|
A:-------------7--9--------11--------11---7--9-|
E:----------------7--------------------------7-|

                                    x2                                       
e:------------------------------------|
B:------------------------------------|
G:------------------------------------|
D:----------------7-------------------|
A:-9-9-9-9-9-9-9--5--9-9-9-9-9--7-7-7-|
E:-7-7-7-7-7-7-7-----7-7-7-7-7--5-5-5-|

                            
e:----------------------------|
B:----------------------------|
G:----------------------------|
D:-----------------------9----|
A:-11-11-11-11-11-11-11--7--9-|
E:-9--9--9--9--9--9--9------7-|

e:----------------------------|
B:-7bf------------------------|
G:-9bf------------------------|
D:----------------------------|
A:----------------------------|
E:----------------------------|

                        x2                                       
e:------------------------|
B:------------------------|
G:------------------------|
D:----------------7-------|
A:-9-9-9-9-9-9-9--5--9--7-|
E:-7-7-7-7-7-7-7-----7--5-|

                            x2
e:----------------------------|
B:----------------------------|
G:----------------------------|
D:-----------------------9----|
A:-11-11-11-11-11-11-11--7--9-|
E:-9--9--9--9--9--9--9------7-|

                                    x2                                       
e:------------------------------------|
B:------------------------------------|
G:------------------------------------|
D:----------------7-------------------|
A:-9-9-9-9-9-9-9--5--9-9-9-9-9--7-7-7-|
E:-7-7-7-7-7-7-7-----7-7-7-7-7--5-5-5-|

e:----9---------------------------------------|
B:--------------------------------------------|
G:-11---11b-----------------------------------|
D:-------------9-----11p9----9-11p9------9----|
A:-------------7--9-------11--------11---7--9-|
E:----------------7-------------------------7-|

                                    x2                                       
e:------------------------------------|
B:------------------------------------|
G:------------------------------------|
D:----------------7-------------------|
A:-9-9-9-9-9-9-9--5--9-9-9-9-9--7-7-7-|
E:-7-7-7-7-7-7-7-----7-7-7-7-7--5-5-5-|

                            
e:----------------------------|
B:----------------------------|
G:----------------------------|
D:-----------------------9----|
A:-11-11-11-11-11-11-11--7--9-|
E:-9--9--9--9--9--9--9------7-|

e:----------------------------|
B:----------------------------|
G:--11b-----------------------|
D:----------------------------|
A:----------------------------|
E:----------------------------|

                        x2                                       
e:------------------------|
B:------------------------|
G:------------------------|
D:----------------7-------|
A:-9-9-9-9-9-9-9--5--9--7-|
E:-7-7-7-7-7-7-7-----7--5-|

                pick slide  
e:---------------------------|
B:---------------------------|
G:-11-11-11\-----------------|
D:---------------------------|
A:--------------x/-----------|
E:--------------x/-----------|

                                    x6                                       
e:------------------------------------|
B:------------------------------------|
G:------------------------------------|
D:----------------7-------------------|
A:-9-9-9-9-9-9-9--5--9-9-9-9-9--7-7-7-|
E:-7-7-7-7-7-7-7-----7-7-7-7-7--5-5-5-|

e:------------------------------------------------------------|
B:------------------------------------------------------------|
G:------------------------------------------------------------|
D:------------------------------------------------------------|
A:-9----------------------------------------------------------|
E:-7----------------------------------------------------------|




hillo son mex

03/10/15
Добавлено: 15.06.2016
Другие материалы по этой песне:
  • Аккорды и текст

Страница создана 19.03.2012
http://primanota.ru/dri/running-around-chords.htm
Привет, Гость.
Предлагаем пройти революционный курс по гитаре.
Подарок от PrimaNota.Ru, забирай!