PrimaNota.ru - самый крупный в мире бесплатный архив песенных текстов, аккордов, табулатур и нот


Dri - Reaganomics - таба, видео

Регистрация Запомнить меня
Войти через:  Facebook Google Twitter Vk Yandex Mail.ru

Dri - Reaganomics - таба, видео

Печатать
Просмотров: 61
Artist: D.r.i.
Piece: Reaganomics
Instrument: Guitar

e:-----------------------------------------------|
B:-----------------------------------------------|
G:-6-4---4---------------------------------------|
D:-----6---6-4-6-4---4---------------------------|
A:-----------------6---6-4-6-4---4---------------|
E:-----------------------------7---7-4-7-4--2-4--|

 2 Times
e:--------------------------------------------------------------------------|
B:--------------------------------------------------------------------------|
G:--------------------------------------------------------------------------|
D:-----------------------------------------------------------------6-6-6-6--|
A:--6-6-6-6--7-7-7-7--6-6-6-6--7-7-7-7--6-6-6-6--7-7-7-7--6-6-6-6--4-4-4-4--|
E:--4-4-4-4--5-5-5-5--4-4-4-4--5-5-5-5--4-4-4-4--5-5-5-5--4-4-4-4-----------|

e:-----------------------------------------------------------------5nh-5nh--|
B:--------------------------------------------------------------------------|
G:--------------------------------------------------------------------------|
D:--------------------------------------------------------------------------|
A:--6-6-6-6--7-7-7-7--6-6-6-6--7-7-7-7--6-6-6-6--7-7-7-7--6-6-6-6-----------|
E:--4-4-4-4--5-5-5-5--4-4-4-4--5-5-5-5--4-4-4-4--5-5-5-5--4-4-4-4-----------|

e:--------------------------------------------------------------------------|
B:--------------------------------------------------------------------------|
G:--------------------------------------------------------------------------|
D:-----------------------------------------------------------------6-6-6-6--|
A:--6-6-6-6--7-7-7-7--6-6-6-6--7-7-7-7--6-6-6-6--7-7-7-7--6-6-6-6--4-4-4-4--|
E:--4-4-4-4--5-5-5-5--4-4-4-4--5-5-5-5--4-4-4-4--5-5-5-5--4-4-4-4-----------|

e:-------------------------------------------|
B:-------------------------------------------|
G:-6-4---4-----------------------------------|
D:-----6---6-4-6-4---4-----------------------|
A:-----------------6---6-4-6-4---4-----------|
E:-----------------------------7---7-4-7-4---|

4 Times
e:--------------------------------------------------------------------------|
B:--------------------------------------------------------------------------|
G:--------------------------------------------------------------------------|
D:-----------------------------------------------------------------6-6-6-6--|
A:--6-6-6-6--7-7-7-7--6-6-6-6--7-7-7-7--6-6-6-6--7-7-7-7--6-6-6-6--4-4-4-4--|
E:--4-4-4-4--5-5-5-5--4-4-4-4--5-5-5-5--4-4-4-4--5-5-5-5--4-4-4-4-----------|


e:-----------------------------------------------|
B:-----------------------------------------------|
G:-6-4---4---------------------------------------|
D:-----6---6-4-6-4---4---------------------------|
A:-----------------6---6-4-6-4---4---------------|
E:-----------------------------7---7-4-7-4--2-4--|
Добавлено: 15.06.2016
Другие материалы по этой песне:
  • Аккорды и текст

Страница создана 15.06.2016
http://primanota.ru/dri/reaganomics-chords.htm
Привет, Гость.
Предлагаем пройти революционный курс по гитаре.
Подарок от PrimaNota.Ru, забирай!