PrimaNota.ru - самый крупный в мире бесплатный архив песенных текстов, аккордов, табулатур и нот


Dri - No Sense - таба, видео

Регистрация Запомнить меня
Войти через:  Facebook Google Twitter Vk Yandex Mail.ru

Dri - No Sense - таба, видео

Печатать
Просмотров: 60
Artist: D.r.i.
Piece: No Sense
Instrument: Guitar

e:-------------------------------------------------------------------------------------------------|
B:-------------------------------------------------------------------------------------------------|
G:-------------------------------------------------------------------------------------------------|
D:-8--8--6---8--8--6--3--6--6--4h6p4h6p4h6p4h6p4--6~~~~~---6-6-6-6-6-6-6-6-6-6-6-6-6-6-6-6-6-6-6-6-|
A:-8--8--6---8--8--6--3--6--6------------------------------6-6-6-6-6-6-6-6-6-6-6-6-6-6-6-6-6-6-6-6-|
E:-6--6--4---6--6--4--1--4--4------------------------------4-4-4-4-4-4-4-4-4-4-4-4-4-4-4-4-4-4-4-4-|

e:-------------------------------------------------------------------------------------------------|
B:-------------------------------------------------------------------------------------------------|
G:-------------------------------------------------------------------------------------------------|
D:-8--8--6---8--8--6--3--6--6--------------6-6-6-6-6-6-6-6-6-6-6-6-6-6-6-6-6-6-6-6-6-6-6-6-6-6-----|
A:-8--8--6---8--8--6--3--6--6--------------6-6-6-6-6-6-6-6-6-6-6-6-6-6-6-6-6-6-6-6-6-6-6-6-6-6-----|
E:-6--6--4---6--6--4--1--4--4--2/16--19----4-4-4-4-4-4-4-4-4-4-4-4-4-4-4-4-4-4-4-4-4-4-4-4-4-4-----|

e:-------------------------------------------------------------------------------------------------|
B:-------------------------------------------------------------------------------------------------|
G:-------------------------------------------------------------------------------------------------|
D:-8--8--6---8--8--6--3--6--6--4h6p4h6p4h6p4h6p4--6~~~~~--6-6-6-6-6-6-6-6-6-6-6-6-6-6-6-6-6-6-6-6--|
A:-8--8--6---8--8--6--3--6--6-----------------------------6-6-6-6-6-6-6-6-6-6-6-6-6-6-6-6-6-6-6-6--|
E:-6--6--4---6--6--4--1--4--4-----------------------------4-4-4-4-4-4-4-4-4-4-4-4-4-4-4-4-4-4-4-4--|

e:-------------------------------------------------------------------------------------------------|
B:-------------------------------------------------------------------------------------------------|
G:-------------------------------------------------------------------------------------------------|
D:-8--8--6---8--8--6--3--6--6--------------6-6-6-6-6-6-6-6-6-6-6-6-6-6-6-6-6-6-6-6-6-6-6-6-6-6-----|
A:-8--8--6---8--8--6--3--6--6--------------6-6-6-6-6-6-6-6-6-6-6-6-6-6-6-6-6-6-6-6-6-6-6-6-6-6-----|
E:-6--6--4---6--6--4--1--4--4--2/16--19----4-4-4-4-4-4-4-4-4-4-4-4-4-4-4-4-4-4-4-4-4-4-4-4-4-4-----|

                                                            fdBk
e:---------------------------------------------------------------------------------|
B:---------------------------------------------------------------------------------|
G:---------------------------------------------------------------------------------|
D:-8--8--6---8--8--6--3--6--6--4h6p4h6p4h6p4h6p4--6~~~~~---------------------------|
A:-8--8--6---8--8--6--3--6--6------------------------------------------------------|
E:-6--6--4---6--6--4--1--4--4------------------------------------------------------|

e:------------------------------|
B:------------------------------|
G:------------------------------|
D:-8--8--6---8--8--6--3--6--6---|
A:-8--8--6---8--8--6--3--6--6---|
E:-6--6--4---6--6--4--1--4--4---|
Добавлено: 17.06.2016
Вам также может быть интересно:
Другие материалы по этой песне:
  • Аккорды и текст

Страница создана 17.06.2016
http://primanota.ru/dri/no-sense-chords.htm
Привет, Гость.
Предлагаем пройти революционный курс по гитаре.
Подарок от PrimaNota.Ru, забирай!