PrimaNota.ru - самый крупный в мире бесплатный архив песенных текстов, аккордов, табулатур и нот


Dri - No Religion - текст песни, таба, видео

Регистрация Запомнить меня
Войти через:  Facebook Google Twitter Vk Yandex Mail.ru

Dri - No Religion - текст песни, таба, видео

Печатать
Просмотров: 141
Уроки эстрадного вокала в Санкт-Петербурге
Artist: D.r.i.
Piece: No Religion

e:------------------------------------|
B:------------------------------------|
G:------------------------------------|
D:------------------------------------|
A:--9---10----9---10---9---10--9---10-|
E:--7---8-----7---8----7---8---7---8--|

e:---------------------|
B:---------------------|
G:---------------------|
D:---------------------| x 4
A:-9--9/12---10--10/12-|
E:-7--7/10---8---8-/10-|


  pick slide
e:------------|
B:------------|
G:------------|
D:------------|
A:-x/---------|
E:-x/---------|


:------------------------|
:------------------------|
:------------------------|
:------------------------| x 2
:-9-9-12-12--10-10-12-12-|
:-7-7-10-10--8--8--10-10-|

verse
:------------------------|
:------------------------|
:------------------------|
:------------------------| x 2
:-9-9-12-12--10-10-12-12-|
:-7-7-10-10--8--8--10-10-|

:------------------------|
:------------------------|
:------------------------|
:------------------------| x 2
:-9-9-12-12--10-10-12-12-|
:-7-7-10-10--8--8--10-10-|


e:-------------------------------------|
B:-------------------------------------|
G:-------------------------------------|
D:-------------------------------------| x 4
A:-7-7-7-7-7--12--10-10-10-10-10-10-10-|
E:-5-5-5-5-5--10--8--8--8--8--8--8--8--|


e:---------------------------|
B:---------------------------|
G:---------------------------| x 3
D:---------------------------|
A:-10-10-7-10-12-12-12-12-12-|
E:-8--8--5-8--10-10-10-10-10-|

e:----------------------|
B:----------------------|
G:----------------------|
D:----------------------|
A:-10-10-7-10-6-6-6-6-6-|
E:-8--8--5-8--4-4-4-4-4-|


:------------------------|
:------------------------|
:------------------------|
:------------------------| x 4
:-9-9-12-12--10-10-12-12-|
:-7-7-10-10--8--8--10-10-|

verse
:------------------------|
:------------------------|
:------------------------|
:------------------------| x 2
:-9-9-12-12--10-10-12-12-|
:-7-7-10-10--8--8--10-10-|

:------------------------|
:------------------------|
:------------------------|
:------------------------| x 2
:-9-9-12-12--10-10-12-12-|
:-7-7-10-10--8--8--10-10-|


e:-------------------------------------|
B:-------------------------------------|
G:-------------------------------------|
D:-------------------------------------| x 4
A:-7-7-7-7-7--12--10-10-10-10-10-10-10-|
E:-5-5-5-5-5--10--8--8--8--8--8--8--8--|


e:---------------------------|
B:---------------------------|
G:---------------------------| x 3
D:---------------------------|
A:-10-10-7-10-12-12-12-12-12-|
E:-8--8--5-8--10-10-10-10-10-|

e:----------------------|
B:----------------------|
G:----------------------|
D:----------------------|
A:-10-10-7-10-6-6-6-6-6-|
E:-8--8--5-8--4-4-4-4-4-|



:------------------------|
:------------------------|
:------------------------|
:------------------------| x 4
:-9-9-12-12--10-10-12-12-|
:-7-7-10-10--8--8--10-10-|

verse
:------------------------|
:------------------------|
:------------------------|
:------------------------| x 2
:-9-9-12-12--10-10-12-12-|
:-7-7-10-10--8--8--10-10-|

:------------------------|
:------------------------|
:------------------------|
:------------------------| x 2
:-9-9-12-12--10-10-12-12-|
:-7-7-10-10--8--8--10-10-|


:-----------------|
:-----------------|
:-----------------| x 4
:-----------------|
:-9--10-10--12-12-|
:-7--8--8---10-10-|

e:---------------------|
B:---------------------|
G:---------------------|
D:---------------------| x 8
A:-9--9/12---10--10/12-|
E:-7--7/10---8---8-/10-|


 pick slide
e:------------|
B:------------|
G:------------|
D:------------|
A:-x/---------|
E:-x/---------|


:------------------------|
:------------------------|
:------------------------|
:------------------------|
:-9-9-12-12--10-10-12-12-|
:-7-7-10-10--8--8--10-10-|


e:---------------------------------------------------------|
B:---------------------------------------------------------|
G:---------------------------------------------------------|
D:---------------------------------------------------------|
A:-9-9-----------------------------------------------------|
E:-7-7-----------------------------------------------------|
Добавлено: 29.09.2015
Другие материалы по этой песне:
  • Аккорды и текст

Страница создана 07.06.2012
http://primanota.ru/dri/no-religion-chords.htm
Привет, Гость.
Предлагаем пройти революционный курс по гитаре.
Подарок от PrimaNota.Ru, забирай!