PrimaNota.ru - самый крупный в мире бесплатный архив песенных текстов, аккордов, табулатур и нот


Dri - I.D.K.Y. - текст песни, таба, видео

Регистрация Запомнить меня
Войти через:  Facebook Google Twitter Vk Yandex Mail.ru

Dri - I.D.K.Y. - текст песни, таба, видео

Печатать
Просмотров: 110
Artist: D.r.i.
Piece: Idky

e:------------------------------|
B:------------------------------|
G:------------------------------|
D:------------------------------|
A:-2-2------5-------7--------10-|
E:-0-0--0-0-3-0-0-0-5-0-0-0--8--|


e:---------------------------------------------|
B:---------------------------------------------|
G:---------------------------------------------|
D:---------------------------------------------|
A:-7-7-7-7-7-7-7-7--5-5-5-5-5--8-8-8-8-8-8-8-8-|
E:-5-5-5-5-5-5-5-5--3-3-3-3-3--6-6-6-6-6-6-6-6-|


e:-----------------------|
B:-----------------------|
G:-----------------------|
D:-----------------------|
A:-7-7-7-7-7-7-7-7--8-10-|
E:-5-5-5-5-5-5-5-5--6-8--|

e:---------------------------------------------|
B:---------------------------------------------|
G:---------------------------------------------|
D:---------------------------------------------|
A:-7-7-7-7-7-7-7-7--5-5-5-5-5--8-8-8-8-8-8-8-8-|
E:-5-5-5-5-5-5-5-5--3-3-3-3-3--6-6-6-6-6-6-6-6-|


e:--------------------------------|
B:--------------------------------|
G:--------------------------------|
D:--------------------------------|
A:-7-7-7-7-7-7-7-7--5--8---10-9-7-|
E:-5-5-5-5-5-5-5-5--3--6---8--7-5-|


verse
e:---------------------------------------------|
B:---------------------------------------------|
G:---------------------------------------------|
D:---------------------------------------------|
A:-7-7-7-7-7-7-7-7--5-5-5-5-5--8-8-8-8-8-8-8-8-|
E:-5-5-5-5-5-5-5-5--3-3-3-3-3--6-6-6-6-6-6-6-6-|


e:-----------------------|
B:-----------------------|
G:-----------------------|
D:-----------------------|
A:-7-7-7-7-7-7-7-7--10-8-|
E:-5-5-5-5-5-5-5-5--8--6-|

e:---------------------------------------------|
B:---------------------------------------------|
G:---------------------------------------------|
D:---------------------------------------------|
A:-7-7-7-7-7-7-7-7--5-5-5-5-5--8-8-8-8-8-8-8-8-|
E:-5-5-5-5-5-5-5-5--3-3-3-3-3--6-6-6-6-6-6-6-6-|


e:-----------------------|
B:-----------------------|
G:-----------------------|
D:-----------------------|
A:-7-7-7-7-7-7-7-7--10-8-|
E:-5-5-5-5-5-5-5-5--8--6-|


:----------------------------------|
:----------------------------------|
:----------------------------------|
:----------------------------------|
:-4-----5-----2----4-------5---8---|
:-2-----3-----0----2-------3---6---|


:----------------------------------|
:----------------------------------|
:----------------------------------|
:----------------------------------|
:-4-----5-----2----4-------5---8---|
:-2-----3-----0----2-------3---6---|

e:---------------------------------------------|
B:---------------------------------------------|
G:---------------------------------------------|
D:---------------------------------------------|
A:-7-7-7-7-7-7-7-7--5-5-5-5-5--8-8-8-8-8-8-8-8-|
E:-5-5-5-5-5-5-5-5--3-3-3-3-3--6-6-6-6-6-6-6-6-|


e:-----------------------|
B:-----------------------|
G:-----------------------|
D:-----------------------|
A:-7-7-7-7-7-7-7-7--8-10-|
E:-5-5-5-5-5-5-5-5--6-8--|

e:---------------------------------------------|
B:---------------------------------------------|
G:---------------------------------------------|
D:---------------------------------------------|
A:-7-7-7-7-7-7-7-7--5-5-5-5-5--8-8-8-8-8-8-8-8-|
E:-5-5-5-5-5-5-5-5--3-3-3-3-3--6-6-6-6-6-6-6-6-|


e:--------------------------------|
B:--------------------------------|
G:--------------------------------|
D:--------------------------------|
A:-7-7-7-7-7-7-7-7--5--8---10-9-7-|
E:-5-5-5-5-5-5-5-5--3--6---8--7-5-|


verse
e:---------------------------------------------|
B:---------------------------------------------|
G:---------------------------------------------|
D:---------------------------------------------|
A:-7-7-7-7-7-7-7-7--5-5-5-5-5--8-8-8-8-8-8-8-8-|
E:-5-5-5-5-5-5-5-5--3-3-3-3-3--6-6-6-6-6-6-6-6-|


e:-----------------------|
B:-----------------------|
G:-----------------------|
D:-----------------------|
A:-7-7-7-7-7-7-7-7--10-8-|
E:-5-5-5-5-5-5-5-5--8--6-|

e:---------------------------------------------|
B:---------------------------------------------|
G:---------------------------------------------|
D:---------------------------------------------|
A:-7-7-7-7-7-7-7-7--5-5-5-5-5--8-8-8-8-8-8-8-8-|
E:-5-5-5-5-5-5-5-5--3-3-3-3-3--6-6-6-6-6-6-6-6-|


e:-----------------------|
B:-----------------------|
G:-----------------------|
D:-----------------------|
A:-7-7-7-7-7-7-7-7--10-8-|
E:-5-5-5-5-5-5-5-5--8--6-|


:----------------------------------|
:----------------------------------|
:----------------------------------|
:----------------------------------|
:-4-----5-----2----4-------5---8---|
:-2-----3-----0----2-------3---6---|


:----------------------------------|
:----------------------------------|
:----------------------------------|
:----------------------------------|
:-4-----5-----2----4-------5---8---|
:-2-----3-----0----2-------3---6---|


e:---------------------------------------------|
B:---------------------------------------------|
G:---------------------------------------------|
D:---------------------------------------------|
A:-7-7-7-7-7-7-7-7--5-5-5-5-5--8-8-8-8-8-8-8-8-|
E:-5-5-5-5-5-5-5-5--3-3-3-3-3--6-6-6-6-6-6-6-6-|


e:-----------------------|
B:-----------------------|
G:-----------------------|
D:-----------------------|
A:-7-7-7-7-7-7-7-7--8-10-|
E:-5-5-5-5-5-5-5-5--6-8--|

e:---------------------------------------------|
B:---------------------------------------------|
G:---------------------------------------------|
D:---------------------------------------------|
A:-7-7-7-7-7-7-7-7--5-5-5-5-5--8-8-8-8-8-8-8-8-|
E:-5-5-5-5-5-5-5-5--3-3-3-3-3--6-6-6-6-6-6-6-6-|


e:------------------------------|
B:------------------------------|
G:------------------------------|
D:------------------------------|
A:-7-7-7-7-7-7-7-7--5--8--8-8-8-|
E:-5-5-5-5-5-5-5-5--3--6--6-6-6-|


:----------------------------------|
:----------------------------------|
:----------------------------------|
:----------------------------------|
:-4-----5-----2----4-------5---8---|
:-2-----3-----0----2-------3---6---|


:----------------------------------|
:----------------------------------|
:----------------------------------|
:----------------------------------|
:-4-----5-----2----4-------5---8---|
:-2-----3-----0----2-------3---6---|


e:---------------------------------------------|
B:---------------------------------------------|
G:---------------------------------------------|
D:---------------------------------------------|
A:-7-7-7-7-7-7-7-7--5-5-5-5-5--8-8-8-8-8-8-8-8-|
E:-5-5-5-5-5-5-5-5--3-3-3-3-3--6-6-6-6-6-6-6-6-|


e:---------------------------------|
B:---------------------------------|
G:---------------------------------|
D:---------------------------------|
A:-7-7-7-7-7-7-7-7--10-10-10-8-8-8-|
E:-5-5-5-5-5-5-5-5--8--8--8--6-6-6-|

e:---------------------------------------------|
B:---------------------------------------------|
G:---------------------------------------------|
D:---------------------------------------------|
A:-7-7-7-7-7-7-7-7--5-5-5-5-5--8-8-8-8-8-8-8-8-|
E:-5-5-5-5-5-5-5-5--3-3-3-3-3--6-6-6-6-6-6-6-6-|

e:---------------------------------|
B:---------------------------------|
G:---------------------------------|
D:---------------------------------|
A:-7-7-7-7-7-7-7-7--10-10-10-8-8-8-|
E:-5-5-5-5-5-5-5-5--8--8--8--6-6-6-|

e:-------------------------|
B:-------------------------|
G:-------------------------|
D:-------------------------|
A:-7-7-7-7-7-7-7-7--5---8--|
E:-5-5-5-5-5-5-5-5--3---6--|
Добавлено: 29.09.2015
Другие материалы по этой песне:
  • Аккорды и текст

Страница создана 03.04.2012
http://primanota.ru/dri/idky-chords.htm
Привет, Гость.
Предлагаем пройти революционный курс по гитаре.
Подарок от PrimaNota.Ru, забирай!