PrimaNota.ru - самый крупный в мире бесплатный архив песенных текстов, аккордов, табулатур и нот


Dri - Hard Ball - текст песни, таба, видео

Регистрация Запомнить меня
Войти через:  Facebook Google Twitter Vk Yandex Mail.ru

Dri - Hard Ball - текст песни, таба, видео

Печатать
Просмотров: 194
Artist: D.r.i.
Piece: Hardball

             pick slide
eb:--------------------------|
Bb:--x--x-----x/x/x/x/x/x/---|
Gb:--x--x-----x/x/x/x/x/x/---|
Db:--x--x--------------------|
Ab:--------------------------|
Eb:--------------------------|


eb:--------------------|
Bb:--------------------|
Gb:--------------------|
Db:-6-----------6------|
Ab:-4--6/5--5---4--6/5-|
Eb:----4/3--3------4/3-|


eb:--------------------------------|
Bb:--------------------------------|
Gb:--------------------------------|
Db:-6-----------------------6------|
Ab:-4--6/5-5-5-5-5-5-5--5---4--6/5-|
Eb:----4/3-3-3-3-3-3-3--3------4/3-|


eb:-----------------------|
Bb:-----------------------|
Gb:-----------------------|
Db:-6-----------6---------|
Ab:-4--6/5--5---4--6/5--5-|
Eb:----4/3--3------4/3--3-|


eb:-------------------------------------|
Bb:-------------------------------------|
Gb:-------------------------------------|
Db:-3/5-5-5--3/5-5-5--3/5-5-5--5--6-6-6-|
Ab:-1/3-3-3--1/3-3-3--1/3-3-3--3--4-4-4-|
Eb:-------------------------------------|

eb:-----------------------------------|
Bb:-----------------------------------|
Gb:-----------------------------------|
Db:-5-5-5--3/5-5-5--8--3-3-3--5-5-5-5-|
Ab:-3-3-3--1/3-3-3--6--1-1-1--3-3-3-3-|
Eb:-----------------------------------|

eb:-------------------------------------|
Bb:-------------------------------------|
Gb:-------------------------------------|
Db:-3/5-5-5--3/5-5-5--3/5-5-5--5--6-6-6-|
Ab:-1/3-3-3--1/3-3-3--1/3-3-3--3--4-4-4-|
Eb:-------------------------------------|

eb:-----------------------------------|
Bb:-----------------------------------|
Gb:-----------------------------------|
Db:-5-5-5--3/5-5-5--8--3-3-3--5-5-5-5-|
Ab:-3-3-3--1/3-3-3--6--1-1-1--3-3-3-3-|
Eb:-----------------------------------|

verse
e:-------------------------------|
B:-------------------------------|
G:-------------------------------|
D:-5-5-5--5-5-5--5-5-5--5--6-6-6-|
A:-3-3-3--3-3-3--3-3-3--3--4-4-4-|
E:-------------------------------|

e:-----------------------------------|
B:-----------------------------------|
G:-----------------------------------|
D:-5-5-5--3/5-5-5--8--3-3-3--5-5-5-5-|
A:-3-3-3--1/3-3-3--6--1-1-1--3-3-3-3-|
E:-----------------------------------|

:--------------------------------|
:--------------------------------|
:--------------------------------|
:-9-9-9-9-9-9-9-9-9-9-9-9--------|
:-7-7-7-7-7-7-7-7-7-7-7-7--7-7-7-|
:--------------------------5-5-5-|

:--------------------------------|
:--------------------------------|
:--------------------------------|
:-9-9-9-9-9-9-9-9-9-9-9-9--------|
:-7-7-7-7-7-7-7-7-7-7-7-7--7-7-7-|
:--------------------------5-5-5-|

u r playing hardball...
e:-------------------------------|
B:-------------------------------|
G:-------------------------------|
D:-5-5-5--5-5-5--5-5-5--5--6-6-6-|
A:-3-3-3--3-3-3--3-3-3--3--4-4-4-|
E:-------------------------------|

e:-----------------------------------|
B:-----------------------------------|
G:-----------------------------------|
D:-5-5-5--3/5-5-5--8--3-3-3--5-5-5-5-|
A:-3-3-3--1/3-3-3--6--1-1-1--3-3-3-3-|
E:-----------------------------------|


e:--------------------------------------------|
B:--------------------------------------------|
G:--------------------------------------------|
D:--------------------------------------------|
A:-5-5-5-5-5-5-6-6-6-6-6-5-5-5-5-5--3-3-3-3-3-|
E:-3-3-3-3-3-3-4-4-4-4-4-3-3-3-3-3--1-1-1-1-1-|


e:------------------------------------------|
B:------------------------------------------|
G:------------------------------------------|
D:------------------------------------------|
A:-5-5-5-5-5-5-6-6-6-6-6--8-8-8-8-9-9-9-9-9-|
E:-3-3-3-3-3-3-4-4-4-4-4--6-6-6-6-7-7-7-7-7-|


u r playing hardball...
e:-------------------------------|
B:-------------------------------|
G:-------------------------------|
D:-5-5-5--5-5-5--5-5-5--5--6-6-6-|
A:-3-3-3--3-3-3--3-3-3--3--4-4-4-|
E:-------------------------------|

e:-----------------------------------|
B:-----------------------------------|
G:-----------------------------------|
D:-5-5-5--3/5-5-5--8--3-3-3--5-5-5-5-|
A:-3-3-3--1/3-3-3--6--1-1-1--3-3-3-3-|
E:-----------------------------------|


e:-----------------------------------------------------------------------|
B:-----------------------------------------------------------------------|
G:-----------------------------------------------------------------------|
D:-5-5-5-5-5-5-5-6-6-6-6-6--5-5-5-5-5-5-5-5--11-11-11-10-10-10-10-10-8-8-|
A:-3-3-3-3-3-3-3-4-4-4-4-4--3-3-3-3-3-3-3-3--9--9--9--8--8--8--8--8--6-6-|
E:-----------------------------------------------------------------------|


:-------------------------------------------|
:-------------------------------------------|
:-------------------------------------------|
:----------------3-5--10--------------------|
:-4-4-4-4-4-4-4--1-3--8---4-4-4-4-4-4-4-4-4-|
:-2-2-2-2-2-2-2-----------2-2-2-2-2-2-2-2-2-|


e:---------------------------------------|
B:---------------------------------------|
G:---------------------------------------|
D:-6-6-6-6-6-6-6-6--8-10-13--6-6-6-6-6-6-|
A:-4-4-4-4-4-4-4-4--6-8--11--4-4-4-4-4-4-|
E:---------------------------------------|



           pick slide
e:----------------------|
B:----------------------|
G:----------------------|
D:-5--------------------|
A:-3------x/------------|
E:--------x/------------|


verse
e:-------------------------------|
B:-------------------------------|
G:-------------------------------|
D:-5-5-5--5-5-5--5-5-5--5--6-6-6-|
A:-3-3-3--3-3-3--3-3-3--3--4-4-4-|
E:-------------------------------|

e:-----------------------------------|
B:-----------------------------------|
G:-----------------------------------|
D:-5-5-5--3/5-5-5--8--3-3-3--5-5-5-5-|
A:-3-3-3--1/3-3-3--6--1-1-1--3-3-3-3-|
E:-----------------------------------|

:--------------------------------|
:--------------------------------|
:--------------------------------|
:-9-9-9-9-9-9-9-9-9-9-9-9--------|
:-7-7-7-7-7-7-7-7-7-7-7-7--7-7-7-|
:--------------------------5-5-5-|

:--------------------------------|
:--------------------------------|
:--------------------------------|
:-9-9-9-9-9-9-9-9-9-9-9-9--------|
:-7-7-7-7-7-7-7-7-7-7-7-7--7-7-7-|
:--------------------------5-5-5-|

u r playing hardball...
e:-------------------------------|
B:-------------------------------|
G:-------------------------------|
D:-5-5-5--5-5-5--5-5-5--5--6-6-6-|
A:-3-3-3--3-3-3--3-3-3--3--4-4-4-|
E:-------------------------------|

e:-----------------------------------|
B:-----------------------------------|
G:-----------------------------------|
D:-5-5-5--3/5-5-5--8--3-3-3--5-5-5-5-|
A:-3-3-3--1/3-3-3--6--1-1-1--3-3-3-3-|
E:-----------------------------------|


e:--------------------------------------------|
B:--------------------------------------------|
G:--------------------------------------------|
D:--------------------------------------------|
A:-5-5-5-5-5-5-6-6-6-6-6-5-5-5-5-5--3-3-3-3-3-|
E:-3-3-3-3-3-3-4-4-4-4-4-3-3-3-3-3--1-1-1-1-1-|


e:------------------------------------------|
B:------------------------------------------|
G:------------------------------------------|
D:------------------------------------------|
A:-5-5-5-5-5-5-6-6-6-6-6--8-8-8-8-9-9-9-9-9-|
E:-3-3-3-3-3-3-4-4-4-4-4--6-6-6-6-7-7-7-7-7-|


u r playing hardball...
e:-------------------------------|
B:-------------------------------|
G:-------------------------------|
D:-5-5-5--5-5-5--5-5-5--5--6-6-6-|
A:-3-3-3--3-3-3--3-3-3--3--4-4-4-|
E:-------------------------------|

e:-----------------------------------|
B:-----------------------------------|
G:-----------------------------------|
D:-5-5-5--3/5-5-5--8--3-3-3--5-5-5-5-|
A:-3-3-3--1/3-3-3--6--1-1-1--3-3-3-3-|
E:-----------------------------------|
Добавлено: 29.09.2015
Другие материалы по этой песне:
  • Аккорды и текст

Страница создана 29.07.2012
http://primanota.ru/dri/hard-ball-chords.htm
Привет, Гость.
Предлагаем пройти революционный курс по гитаре.
Подарок от PrimaNota.Ru, забирай!