PrimaNota.ru - самый крупный в мире бесплатный архив песенных текстов, аккордов, табулатур и нот


Dri - Down To The Wire - текст песни, таба, видео

Регистрация Запомнить меня
Войти через:  Facebook Google Twitter Vk Yandex Mail.ru

Dri - Down To The Wire - текст песни, таба, видео

Печатать
Просмотров: 110
-------------------------------------------------------------------------------
                             Down to the wire - DRI
-------------------------------------------------------------------------------
Tabbed by: Flame The Fox
Tuning: Drop D




Intro                              Verse               
e|----------------------|---------|----------------------|----------------------|
B|----------------------|---------|----------------------|----------------------|
G|----------------------|---------|----------------------|----------------------|
D|-6-5-3--0-0--0-0--0-0-|-6-5-3---|-0-0--6-6--0-0--6-5-3-|-0-0--6-6--0-0--3-5-6-|
A|-6-5-3--0-0--0-0--0-0-|-6-5-3---|-0-0--6-6--0-0--6-5-3-|-0-0--6-6--0-0--3-5-6-|
D|-6-5-3--0-0--0-0--0-0-|-6-5-3---|-0-0--6-6--0-0--6-5-3-|-0-0--6-6--0-0--3-5-6-|
                      x4  Dive Bomb                    x4                                      


  Chorus            
e|--------------------|---------------------|--------------------|
B|--------------------|---------------------|--------------------|
G|--------------------|---------------------|--------------------|
D|-7-7--6-6--3-3--6-6-|--7-7--6-6--3-3--111-|-7-7--6-6--3-3--5-5-|
A|-5-5--6-6--3-3--3-3-|--5-5--6-6--3-3--111-|-5-5--6-6--3-3--3-3-|
D|------6-6--3-3------|-------6-6--3-3--111-|------6-6--3-3------|
                    x2


  Post chorus
e|----------------------------------------------------------|
B|----------------------------------------------------------|
G|----------------------------------------------------------|
D|----------------------------------------------------6-5-3-|
A|-3-5-6-------------------3-5-6--------3-5-6---------6-5-3-|
D|--------000--3-5-6--000---------000----------3-5-6--6-5-3-|




e|----------------------------------------------------------------------|
B|----------------------------------------------------------------------|
G|----------------------------------------------------------------------|
D|----------------------------------------------------------------------|
A|-3-5-6-----------------------------------------3-5-6-3----------------|
D|--------000--000--000--3--5--6--000--000--000-----------000--000--000-|


Break Down
e|----------------------------------------------------|
B|----------------------------------------------------|
G|----------------------------------------------------|
D|-6-5-3--0-0--0-0--0-0--111--0-0--0-0--0-0--5-5--6-6-|
A|-6-5-3--0-0--0-0--0-0--111--0-0--0-0--0-0--5-5--6-6-|
D|-6-5-3--0-0--0-0--0-0--111--0-0--0-0--0-0--5-5--6-6-|
          slow down a bit



e|-----------------------------------------|
B|-----------------------------------------|
G|-----------------------------------------|
D|-0-0--0-0--0-0--111--0-0--0-0--0-0--3--6-|
A|-0-0--0-0--0-0--111--0-0--0-0--0-0--3--6-|
D|-0-0--0-0--0-0--111--0-0--0-0--0-0--3--6-|
         

Play verse, chorus, post chorus.

e|------------|
B|------------|
G|------------|
D|-6-5-3--0-0-|
A|-6-5-3--0-0-|
D|-6-5-3--0-0-|
            x4


**************************

THE END :3 HAPPY THRASHIN!

**************************
Добавлено: 29.09.2015
Другие материалы по этой песне:
  • Аккорды и текст

Страница создана 18.05.2012
http://primanota.ru/dri/down-to-the-wire-chords.htm
Привет, Гость.
Предлагаем пройти революционный курс по гитаре.
Подарок от PrimaNota.Ru, забирай!