PrimaNota.ru - самый крупный в мире бесплатный архив песенных текстов, аккордов, табулатур и нот


Dri - Dirty Rotten Imbeciles - таба, видео

Регистрация Запомнить меня
Войти через:  Facebook Google Twitter Vk Yandex Mail.ru

Dri - Dirty Rotten Imbeciles - таба, видео

Печатать
Просмотров: 108
Уроки эстрадного вокала в Санкт-Петербурге
Artist: D.r.i.
Piece: Dirty Rotten Imbeciles
Instrument: Guitar

e:--------------------------------|
B:--------------------------------|
G:---------------10B--------------|
D:--10-----------------10---------|
A:--8---11--10---------8---11--8--|
E:------9---8--------------9---6--|


e:-----------------------------------------------------------------------------------------|
B:-----------------------------------------------------------------------------------------|
G:-----------------------------------------------------------------------------------------|
D:-4/---121212121212---4/---121212121212---4/---121212121212---4/---121212121212----10----|
A:-2/---101010101010---2/---101010101010---2/---101010101010---2/---101010101010----8-----|
E:-----------------------------------------------------------------------------------------|

e:--------------------------------|
B:--------------------------------|
G:---------------10B--------------|
D:--10-----------------10---------|
A:--8---11--10---------8---11--8--|
E:------9---8--------------9---6--|


e:-----------------------------------------------------------------------------------------|
B:-----------------------------------------------------------------------------------------|
G:-----------------------------------------------------------------------------------------|
D:-4/---121212121212---4/---121212121212---4/---121212121212---4/---121212121212----10----|
A:-2/---101010101010---2/---101010101010---2/---101010101010---2/---101010101010----8-----|
E:-----------------------------------------------------------------------------------------|


e:--------------------------------|
B:--------------------------------|
G:---------------10B--------------|
D:--10-----------------10---------|
A:--8---11--10---------8---11--8--|
E:------9---8--------------9---6--|

e:-----------------------------------------------------------------------------------------|
B:-----------------------------------------------------------------------------------------|
G:-----------------------------------------------------------------------------------------|
D:-4/---121212121212---4/---121212121212---4/---121212121212---4/---121212121212----10----|
A:-2/---101010101010---2/---101010101010---2/---101010101010---2/---101010101010----8-----|
E:-----------------------------------------------------------------------------------------|


e:--------------------------------|
B:--------------------------------|
G:---------------10B--------------|
D:--10-----------------10---------|
A:--8---11--10---------8---11--8--|
E:------9---8--------------9---6--|


e:---------------------------------------------------------------------------|
B:---------------------------------------------------------------------------|
G:---------------------------------------------------------------------------|
D:-4/---121212121212---4/---121212121212---4/---121212121212---4/---12-------|
A:-2/---101010101010---2/---101010101010---2/---101010101010---2/---10-------|
E:---------------------------------------------------------------------------|
Добавлено: 29.10.2015
Другие материалы по этой песне:
  • Аккорды и текст

Страница создана 29.10.2015
http://primanota.ru/dri/dirty-rotten-imbeciles-chords.htm
Привет, Гость.
Предлагаем пройти революционный курс по гитаре.
Подарок от PrimaNota.Ru, забирай!